Oops, an error
Loading. Please wait.

Youth Of The Nation Tab

version 2
version 2
by P.O.D.
56,286 views 30 this week
5 commentsread comments
1 2 3 4 5
x 16
add to favorites
launch autoscroll
font size
0
reset
how to read this tab
guitar tuner
backing track
0:00
0:00
×
Best way to learn
"Youth Of The Nation"
Autoscroll
slow
fast
+/-
esc
set tempo
stop
Author
POD

Tune to drop D and then tune all the strings down 1 step
CGCFAD

[Intro]
(with Delay) !!Play slow!!
d-----------------------|
a-----------------------|
f------------0----------|
C----------------5--3-0-|
G-----------------------|
C--0-(hold)-3-----------|

[Verse]
(Delay)  !!Play Slow!!
d-------------------|
a-------------------|
f------2---0--------|
C----0--------5-3-0-| x4
G-------------------|
C--0------3---------|

d----10--12-13----10-----|
f--10-----------10-------|
a------------------------|
C---------------------10-|
G------------------------|
C------------------------|

[Chorus]
(with Delay)
d--------------------|
a--------------------|
f--------------------|
C-------------5--3-0-|
G--------------------|
C--0-(hold)-3--------|

[Bridge]
(with Distortion)
d-----------------------------------------|
a----5-6--5-6--8--8p6p5--5h6p5---5--------|
f--7---------------------------7----7-5---|
C-----------------------------------------|  x2
G-----------------------------------------|
C-----------------------------------------|

************************************

| h  Hammer-on
| p  Pull-off

************************************
Suggest correction
comments
print report bad tab
5 comments total. Showing first comments.
-2 reply
correct-error 161 Feb 27, 2002 07:00 PM

You just copyed the other guys tab!!! This one is wrong anyway!!

-1 reply
sane_person 396 Mar 06, 2003 07:00 PM

its the same as the other one

0 reply
LuvJimmiHendrix 10 Jan 27, 2008 12:58 PM

This song kicks ass!

guest
You may want to rate the tab now too:
select rating
Wanna post a correction for this tab? Suggest correction