Oops, an error
Loading. Please wait.

Desencuentro tab

277 views 3 this week
no commentswrite comment
1 2 3 4 5
3 more votes to show rating
add to favorites
×
Save as Personal and add changes to this tab that will be seen only by you. Learn more ›
×
You can save this tab as Personal to edit and correct it or add notes. All changes will be seen only by you. Learn more »
launch autoscroll
font size
0
reset
how to read this tab
guitar tuner
edit
Autoscroll
slow
fast
+/-
esc
set tempo
stop
Author
Difficulty
Esta es la version en vivo que el canta en el video 'PABLO ALBORÁN -DESENCUENTRO (en mi casa)'


ACORDES:

Ab:466544
Fm9:131113
Bbm7:x13121
Eb7:x6564x
Cm7:x35343
Bm7:x24232
Dbm7:x46454
E7:x7675x  (xx2130  para la ultima parte)
Amaj7:x02120
F#m9:242224
E:022100
F#m7:242222
Dm7:x57565
Dmadd3:xx3230



INTRO:

e|---6------6-----6-------6-----------3-------3------3--------3--------------------
B|---5--4-----4-----4---4---4-----------1-------1------1----1---1------------------
G|---4----5-----5-----5--------5----------1-------1------1--------1----------------
D|---------------------------------------------------------------------------------
A|---------------------------------------------------------------------------------
E|---4--------------------------------1--------------------------------------------


e|----------------------4-----------------0----------------------------------------
B|---------0h2-------------------------4-----4-------------------------------------
G|-------1-----1----1----------------6---------6-----------------------------------
D|-----3---------3----------------5---------------5--------------------------------
A|--1---------------------------6--------------------6-----------------------------
E|---------------------------------------------------------------------------------




No puedo seguir buscando tu aroma en el viento 
           Ab                            Fm9

no puedo mentir y ocultar lo que siento 
          Bbm7                    Eb7

intento vivir sufriendo bajo este silencio 
          Ab                       Fm9

y de nuevo por ti me hundo en un infierno 
               Bbm7                Eb7



No era prisionero de tus labios y ahora que estas lejos 
             Fm9                                  Cm7   (Bm7)

yo te deseo como el aire  el baile de tu cuerpo 
       Bbm7                               Eb7

Puedes olvidar mi nombre puedes olvidar mis besos 
                   Ebm7                      Cm7  (Bm7)

pero en el aire permanece    mi voz y mi recuerdo 
           Bbm7          Eb7                E7



Sufriendo por ti me pierdo en un mar de dudas 
             Amaj7                      F#m9  

me mata este dolor me ahogan mis lagrimas mudas 
              Bm7                         E

invades cada noche mi cuerpo y mi alma 
             Amaj7                F#m9

haces llorar mis ojos haces que pierda la calma 
                 Bm7                      E



No era prisionero de tus labios y ahora que estas lejos 
            F#m7                                  Dbm7  (Cm7)

te deseo como el aire  el baile de tu cuerpo 
     Bm7                               E

No era prisionero de tus labios y ahora que estas lejos 
            F#m7                                  Dbm7  (Cm7)

te deseo como el aire  el baile de tu cuerpo 
     Bm7                               E

Puedes olvidar mi nombre puedes olvidar mis besos 
                  Dm7                       Dbm7  (Cm7)

pero en el aire permanence     mi voz   y mi...
           Bm7           E      Dmadd3    E7        

e|------------------0------0------0-----------------0-----------0--------------
B|----------------2---2------2------2------------3-----3--------2--------------
G|--------------4-------4------4------4--------4---------4------4--------------
D|------------2------------------------------3-------------3----2--------------
A|----------0-----------------------------0---------------------0--------------
E|-----------------------------------------------------------------------------
 ..recuerdo 



            
            
Suggest correction
Creating personal tab
Creating personal tab
You can edit any tab online and save it as your Personal.

You can edit, replace or remove any tab part or add personal notes – all changes will be seen only by you.

Personal tabs can be accessed anytime from any device, even offline.
Learn more »
Give kudos to tab author, rate the tab!
1 2 3 4 5
comments
print report bad tab
guest
You may want to rate the tab now too:
select rating
Wanna post a correction for this tab? Suggest correction