Oops, an error
Loading. Please wait.

Love Will Find A Way chords

version 2
version 2

Whole song

748 views 3 this week
no commentswrite comment
1 2 3 4 5
2 more votes to show rating
add to favorites
×
Save as Personal and add changes to this tab that will be seen only by you. Learn more ›
×
You can save this tab as Personal to edit and correct it or add notes. All changes will be seen only by you. Learn more »
launch autoscroll
font size
0
reset
transpose
0
reset
simplify chords
display chords
guitar tuner
edit
Autoscroll
slow
fast
+/-
esc
set tempo
stop
Strumming
There is no strumming pattern for this song yet. and get +5 IQ
So this is my take on copping the electric piano part on guitar
See my chords section below.  The G7 chords 1-5 follow the vocal in the verses
even over some of the C9 phrase.
Have fun.

Love Will Find A Way - Pablo Cruise
INTRO: (palm mute)
E|-------------------|-------------------|
B|-------------------|-------------------|
G|-------------------|-------------------|
D|-------------------|-------------------| (X2)
A|-------------------|-------------------|
E|--3-3-1-3---3-1-3--|--3-1-3-----3-1-3--|

 G7 
Someone, someone's done ya wrong
                                 C9 
You thought that your love was strong
                                G7          G7sus
Now you're feelin' like such a fool.  Poor you

         G7 
You're thinkin' maybe if you said goodbye
                              C9 
You'll understand the reason why
                           G7      B9 
The love you had felt so cruel, um-hm

CH:  G/A          D 
        Oh, but it's all right (all right)
        Dsus                    D              
        Once you get past the pain (past the...)
                Dsus                     D
        You'll learn to find your love again
            Dsus    
        So keep your heart open
                Bm7       A      G            A 
        'Cause love will find a way      Ohh Oooo

[VERSE:]  
 G7 
Sometimes       we all feel a need to change
                         C9
Our love we have to rearrange
                          G7           G7sus
And move on to something new, yes you do

       G                  
Your dreams    feel like they're fallin' apart
                               C9
You need to find a brand new start
                                G7            B9       G/A
But you're almost afraid to be true   to yourself     (CHORUS)

[BRIDGE:]
BbM7/C            Am11 
Love will find a way              /    /    /
BbM7/F                Db6/Eb    Eb6/F 
Love will find a way

GUITAR SOLO: (verse chords)

[VERSE:]
        G7
So now don't,      don't be afraid of yourself
                           C9
Just move on to something else
                            G7   B9
And let your love shine through again


CH:  G/A          D 
        Oh, but it's all right (all right)
        Dsus                   D              
        Once you get past the pain (past the...)
                Dsus                     D
        You'll learn to find your love again
           Dsus    
        So keep your heart open
                Bm7       A      G            A 
        'Cause love will find a way      Ohh Oooo


Verse Chords

   G7 1      G7 2      G7 3      G7 4      G7 5      G7 1
|-------| |-------| |-------| |-------| |-------| |-------|
|---0---| |---6---| |---5---| |---3---| |---1---| |---0---| 
|-------| |-------| |-------| |-------| |-------| |-------| 
|---3---| |---7---| |---5---| |---3---| |---2---| |---3---| 
|-------| |-------| |-------| |-------| |-------| |-------| 
|-------| |-------| |-------| |-------| |-------| |-------| 

   C9       G7sus       B9    
|-------| |-------| |-------|
|---3---| |---1---| |---2---| 
|---3---| |-------| |---2---| 
|---2---| |---3---| |---1---| 
|---3---| |-------| |---2---|
|-------| |-------| |-------|

Chorus Chords

   G/A        D        Dsus      Bm7        A         G
|---3---| |---2---| |---3---| |---7---| |---5---| |---3---|
|---3---| |---3---| |---3---| |---7---| |---5---| |---3---|
|---0---| |---2---| |---2---| |---7---| |---6---| |---4---| 
|---0---| |---0---| |---0---| |---7---| |---7---| |---5---| 
|---0---| |-------| |-------| |-------| |---7---| |---5---| 
|-------| |-------| |-------| |---7---| |---5---| |---3---|

Bridge Chords

  BbM7/C     Am11     BbM7/F    Db6/Eb    Eb6/F
|---5---| |---5---| |---5---| |---6---| |---8---|
|---3---| |---5---| |---3---| |---6---| |---8---|
|---3---| |---5---| |---3---| |---6---| |---8---|
|---3---| |---5---| |---3---| |---6---| |---8---|
|---3---| |---5---| |-------| |---6---| |---8---|
|-------| |---5---| |-------| |-------| |---8---|

            
            
Suggest correction
Creating personal tab
Creating personal tab
You can edit any tab online and save it as your Personal.

You can edit, replace or remove any tab part or add personal notes – all changes will be seen only by you.

Personal tabs can be accessed anytime from any device, even offline.
Learn more »
Give kudos to tab author, rate the tab!
1 2 3 4 5
comments
print report bad tab
guest
You may want to rate the tab now too:
select rating
Wanna post a correction for this tab? Suggest correction