Oops, an error
Loading. Please wait.

La Historia De Un Carpintero tab

version 1
version 1

Whole song

77 views 1 this week
no commentswrite comment
1 2 3 4 5
3 more votes to show rating
add to favorites
×
Save as Personal and add changes to this tab that will be seen only by you. Learn more ›
×
You can save this tab as Personal to edit and correct it or add notes. All changes will be seen only by you. Learn more »
launch autoscroll
font size
0
reset
how to read this tab
guitar tuner
edit
Autoscroll
slow
fast
+/-
esc
set tempo
stop
El tono original de esta cancion es D#m7;
por lo tanto
vamos a utilizar un capo en el primer traste...

La tablatura esta elaborada en el tono de Dm7...

Intro

    Dm7     Am7    Bbdim9  Bbadd9
e----1-----0--------------------------------------------------
B----1-----1---1-1------1----3--------------------------------
G----2-----0----0------3------5-------------------------------
D--0------------------2--------3------------------------------
A----------0---------1----------------------------------------
E-------------------------------------------------------------


    Dm7     Am7      G6   G
e----1-----0----------0---------------------------------------
B----1-----1---1------0----0----------------------------------
G----2-----0----0-----0----0----------------------------------
D--0-----------------------0----------------------------------
A----------0--------------------------------------------------
E---------------------3--3------------------------------------


    Dm7     Am7    Bbdim9  Bbadd9
e----1-----0--------------------------------------------------
B----1-----1---1-1------1----3--------------------------------
G----2-----0----0------3------5-------------------------------
D--0------------------2--------3------------------------------
A----------0---------1----------------------------------------
E-------------------------------------------------------------


    Dm7     Am7      G6   G
e----1-----0----------0---------------------------------------
B----1-----1---1------0----3----------------------------------
G----2-----0----0-----0----0----------------------------------
D--0-----------------------0----------------------------------
A----------0--------------------------------------------------
E---------------------3--3------------------------------------

Estrofa:

    Dm7     Am7    Bbdim9  Bbadd9
e----1-----0--------------------------------------------------
B----1-----1---1-1------1----3--------------------------------
G----2-----0----0------3------5-------------------------------
D--0------------------2--------3------------------------------
A----------0---------1----------------------------------------
E-------------------------------------------------------------
   Un día escuche la historia


    Dm7     Am7              G
e----1-----0-----------------3--------------------------------
B----1-----1---1-1-----------3--------------------------------
G----2-----0----0------------0--------------------------------
D--0----------------------------------------------------------
A----------0--------------------------------------------------
E----------------------------3--------------------------------
    de un carpintero que me vino a salvar


    Dm7     Am7    Bbdim9  Bbadd9
e----1-----0--------------------------------------------------
B----1-----1---1-1------1----3--------------------------------
G----2-----0----0------3------5-------------------------------
D--0------------------2--------3------------------------------
A----------0---------1----------------------------------------
E-------------------------------------------------------------
    desde muy niño la recuerdo

    Dm7     Am7              G
e----1-----0-----------------3--------------------------------
B----1-----1---1-1-----------3--------------------------------
G----2-----0----0------------0--------------------------------
D--0----------------------------------------------------------
A----------0--------------------------------------------------
E----------------------------3--------------------------------
    y desde entonces no la pude olvidar

Coro:
      Bsus2        C#sus2          D#m7
Si vivís, si vivís  aquella historia
    Bsus         C#sus2    D#m7
la que tu vida puede cambiar
      Bsus2     C#sus2            D#m7
si sentís si sentís aquella historia
 G#m7                A#m7     Bsus2
solo la tienes que acep----tar
                   D#m7
la salvación el te da.

Intro2:

    Dm7     Am7    Bbdim9  Bbadd9
e----1-----0--------------------------------------------------
B----1-----1---1-1------1----3--------------------------------
G----2-----0----0------3------5-------------------------------
D--0------------------2--------3------------------------------
A----------0---------1----------------------------------------
E-------------------------------------------------------------


    Dm7     Am7      G6   G
e----1-----0----------0---------------------------------------
B----1-----1---1------0----3----------------------------------
G----2-----0----0-----0----0----------------------------------
D--0-----------------------0----------------------------------
A----------0--------------------------------------------------
E---------------------3--3------------------------------------

Estrofa2:

    Dm7     Am7    Bbdim9  Bbadd9
e----1-----0--------------------------------------------------
B----1-----1---1-1------1----3--------------------------------
G----2-----0----0------3------5-------------------------------
D--0------------------2--------3------------------------------
A----------0---------1----------------------------------------
E-------------------------------------------------------------
   Porque esa historia cambia toda

    Dm7     Am7              G
e----1-----0-----------------3--------------------------------
B----1-----1---1-1-----------3--------------------------------
G----2-----0----0------------0--------------------------------
D--0----------------------------------------------------------
A----------0--------------------------------------------------
E----------------------------3--------------------------------
   porque su sangre nos dio oportunidad

    Dm7     Am7    Bbdim9  Bbadd9
e----1-----0--------------------------------------------------
B----1-----1---1-1------1----3--------------------------------
G----2-----0----0------3------5-------------------------------
D--0------------------2--------3------------------------------
A----------0---------1----------------------------------------
E-------------------------------------------------------------
    yo quiero amarte y alabarte

    Dm7     Am7              G
e----1-----0-----------------3--------------------------------
B----1-----1---1-1-----------3--------------------------------
G----2-----0----0------------0--------------------------------
D--0----------------------------------------------------------
A----------0--------------------------------------------------
E----------------------------3--------------------------------
   glorificarte hasta en la eternidad

Coro:
      Bsus2        C#sus2          D#m7
Si vivís, si vivís  aquella historia
    Bsus         C#sus2    D#m7
la que tu vida puede cambiar
      Bsus2     C#sus2            D#m7
si sentís si sentís aquella historia
 G#m7                A#m7     Bsus2
solo la tienes que acep----tar
                   Ebsus2
la salvación el te da.

Puente:

Ebsus2             D#m7
Y yo amo esa historia
Ebsus2                      D#m7
porque es la historia de Jesús
Ebsus2                     D#m7
sin dudar subió a la cruz para morir
           Ebsus2
pagar el precio con dolor
          F                     G
sin tener culpa dio su vida el por mí

Coro:
      Bsus2        C#sus2          D#m7
Si vivís, si vivís  aquella historia
    Bsus         C#sus2    D#m7
la que tu vida puede cambiar
      Bsus2     C#sus2            D#m7
si sentís si sentís aquella historia
 G#m7                A#m7     Bsus2
solo la tienes que acep----tar
                   D#m7
la salvación el te da.

Outro:

    Dm7     Am7    Bbdim9  Bbadd9
e----1-----0--------------------------------------------------
B----1-----1---1-1------1----3--------------------------------
G----2-----0----0------3------5-------------------------------
D--0------------------2--------3------------------------------
A----------0---------1----------------------------------------
E-------------------------------------------------------------


    Dm7     Am7      G6   G
e----1-----0----------0---------------------------------------
B----1-----1---1------0----3----------------------------------
G----2-----0----0-----0----0----------------------------------
D--0-----------------------0----------------------------------
A----------0--------------------------------------------------
E---------------------3--3------------------------------------


Bueno k Dios los bendiga...
Espero y les sea de gran ayuda...

Markos Rivera...
IPUIE... Santo Domingo_Ecuador

            
            
Suggest correction
Creating personal tab
Creating personal tab
You can edit any tab online and save it as your Personal.

You can edit, replace or remove any tab part or add personal notes – all changes will be seen only by you.

Personal tabs can be accessed anytime from any device, even offline.
Learn more »
Give kudos to tab author, rate the tab!
1 2 3 4 5
comments
print report bad tab
guest
Wanna post a correction for this tab? Suggest correction