Oops, an error
Loading. Please wait.

La Historia De Un Carpintero tab

version 2
version 2

Whole song

50 views 1 this week
no commentswrite comment
1 2 3 4 5
3 more votes to show rating
add to favorites
×
Save as Personal and add changes to this tab that will be seen only by you. Learn more ›
×
You can save this tab as Personal to edit and correct it or add notes. All changes will be seen only by you. Learn more »
launch autoscroll
font size
0
reset
how to read this tab
guitar tuner
edit
Autoscroll
slow
fast
+/-
esc
set tempo
stop
Primero vamos a usar un capo en el segundo traste!
Luego con el capo en el segundo traste.. la intro y las 2 estrofas son así:

1ºIntro:

     C#m   G#m       A
E----------4---4-------------------------------------
A----4--------------0--------------------------------
D---------------------1-2---------2-1----------------
G------4---4---4-------------------------------------
B------5---4--------------0--3-0---------------------
e----------------------------------------------------

     C#m   G#m          B  F#
E----------4---4------------2------------------------
A----4------------------2----------------------------
D----------------------------------------------------
G------4---4---4--------4----3-----------------------
B------5---4------------4----2-----------------------
e----------------------------------------------------
                  (x2)
1ºEstrofa:

     C#m   G#m       A
E----------4---4-------------------------------------
A----4--------------0--------------------------------
D---------------------1-2---------2-1----------------
G------4---4---4-------------------------------------
B------5---4--------------0--3-0---------------------
e----------------------------------------------------
     C#m   G#m          B  F#
E----------4---4------------2------------------------
A----4------------------2----------------------------
D----------------------------------------------------
G------4---4---4--------4----3-----------------------
B------5---4------------4----2-----------------------
e----------------------------------------------------
                  (x2)
Coro:

A               B             C#m
Si vivís, si vivís aquella historia
A                       B
la que tu vida puede cambiar
A               B               C#m
si sentís, si sentís aquella historia
  F#                 G#-A
solo la tienes que aceptar

la salvación El te da.

2ºIntro: igual a la primera.
2ºEstrofa: igual a la primera.

Coro

Puente:
D               C#m
Y yo amo esa historia
D                         C#m
porque es la historia de Jesús
D                    C#m
sin dudar subió a la cruz para morir
         D
pagar el precio con dolor
            E                      F#
sin tener culpa dio su vida el por mí

Coro

Outro:

     C#m   G#m       A
E----------4---4-------------------------------------
A----4--------------0--------------------------------
D---------------------1-2---------2-1----------------
G------4---4---4-------------------------------------
B------5---4--------------0--3-0---------------------
e----------------------------------------------------
     C#m   G#m          B  F#
E----------4---4------------2------------------------
A----4------------------2----------------------------
D----------------------------------------------------
G------4---4---4--------4----3-----------------------
B------5---4------------4----2-----------------------
e----------------------------------------------------

Espero que les sirva... lo resumí todo porque no me deja poner todo :(
pero espero que se entienda. Recuerden que si la tocan si el capo la canción se
tiene que subir de tono.. Salu2 y bendiciones!! desde Uruguay.. Esteban
Suggest correction
Creating personal tab
Creating personal tab
You can edit any tab online and save it as your Personal.

You can edit, replace or remove any tab part or add personal notes – all changes will be seen only by you.

Personal tabs can be accessed anytime from any device, even offline.
Learn more »
Give kudos to tab author, rate the tab!
1 2 3 4 5
comments
print report bad tab
guest
Wanna post a correction for this tab? Suggest correction