Oops, an error
Loading. Please wait.

Float Tab

315 views 1 this week
no commentswrite comment
1 2 3 4 5
please rate
add to favorites
launch autoscroll
font size
0
reset
how to read this tab
guitar tuner
Autoscroll
slow
fast
+/-
esc
set tempo
stop
Help us to improve Ultimate-Guitar.com Take our survey!
×
Author
Difficulty
novice
Artist: Pacific Air
Song: Float 
Album: Stop Talking
Tuning: Standard

Intro

e |-------------5--3--0--------------------------|
B |--8--5----5-----------3--3-3-3--5--3--1-------|
G |--------5--------------------------------2----|
D |----------------------------------------------|
A |----------------------------------------------|      
E |----------------------------------------------|

Verse 1

e |--x---0---5---0-----|
B |--1---0---6---1-----|
G |--0---0---7---2-----|
D |--2---2---7---2-----|
A |--3---2---5---0-----|        
E |--x---x---x---x-----|

Now I don't know if I'm lost
But this all just looks the same
I am pushing on the door
Between sorrow and fame

I would crawl out of this hole
If it wasn't so cold
In the morning, I'll be fine
In the morning, I'll be right

Chorus

e |--x---0---5---0-----|
B |--1---0---6---1-----|
G |--0---0---7---2-----|
D |--2---2---7---2-----|
A |--3---2---5---0-----|        
E |--x---x---x---x-----|

If I go all the way
Then the girl won't stay
No the girl won't stay
I know I can change
If we both get old
Will you let me float away?

e |-------------5--3--0--------------------------|
B |--8--5----5-----------3--3-3-3--5--3--1-------|
G |--------5--------------------------------2----|
D |----------------------------------------------|
A |----------------------------------------------|      
E |----------------------------------------------|

Verse 2

I don't want to be young
But I don't want to die
I can whisper in the wind
We can smoke out every night

I don't want to live alone
I don't want to stay inside
I can learn from my mistakes
In the morning I'll be right

Chorus

Bridge

e |--x---0---5---0-----|
B |--1---0---6---1-----|
G |--0---0---7---2-----|
D |--2---2---7---2-----|
A |--3---2---5---0-----|        
E |--x---x---x---x-----|

e |-------------------|
B |-------------------|
G |-7--7--7-7-7-7-----|
D |-------------------|
A |-------------------|         
E |-------------------|

Bah bah bah bah bah da da

Chorus

e |--x---0---5---0-----|
B |--1---0---6---1-----|
G |--0---0---7---2-----|
D |--2---2---7---2-----|
A |--3---2---5---0-----|        
E |--x---x---x---x-----|

If I go all the way
Then the girl won't stay
No the girl won't stay
I know I can change
If we both get old
Will you let me float away?
Suggest correction
Give kudos to tab author, rate the tab!
1 2 3 4 5
comments
print report bad tab
guest
You may want to rate the tab now too:
select rating
Please do not post tabs as comments. Select "correction" instead!