Oops, an error
Loading. Please wait.

Dreaming Tab

2,056 views 3 this week
1 commentread comment
1 2 3 4 5
excellent!
x 3
add to favorites
launch autoscroll
font size
0
reset
how to read this tab
guitar tuner
Autoscroll
slow
fast
+/-
esc
set tempo
stop
Help us to improve Ultimate-Guitar.com Take our survey!
×
Contributor
Difficulty
intermediate
Tabbed by Chase Keller

Tab date: 7/31/2013
Band: Pacific Dub
Song: Dreaming

First time hearing this song and it is awesome so here are the tabs I have created just 
by listening to it over and over. Please rate and let me know what you think! -Chase
This tab doesnt contain the solo or outro, although they are very easy to figure out or 
improvise based on the chords.

Standard Tuning EAGDBe
Intro Guitar One

e|-----------------------------------------------------------------------------|
B|--8-----------10-------------------------------------------------------------|
G|--------x4----------x4----------7----x4------9-------x4----------------------| X2
D|----9------------9------------------9-------------9--------------------------|
A|-----------------------------------------------------------------------------|
E|-----------------------------------------------------------------------------|


e|-----------------------------------------------------------------------------|
B|--8-----------10-------------------7-------------8---------------------------|
G|--------x4----------x4----------------x4--------------x4---------------------| X2
D|----9------------9-------------------9--------------9------------------------|
A|-----------------------------------------------------------------------------|
E|-----------------------------------------------------------------------------|


        Em.        C.             Gmaj.           B
e|----------------------------------------------------|
B|--8-----8-----8-----8--------3----3------7-----7----|
G|----9-----9-----9-----9--------4---4------8-----8---| X2 (faint)
D|------9-----9-----10----10-------5---5-----9-----9--|
A|----------------------------------------------------|
E|----------------------------------------------------|

        Em.             C.                                 B
e|--7----7-------8-----8--------7-----7-------7-----7-------------------------|
B|---8----8-------8-----8--------8-----8-------7------7-----------------------|
G|-----9----9--------9-----9-------7-----7------8------8----------------------|X2
D|----------------------------------------------------------------------------|
A|----------------------------------------------------------------------------|
E|----------------------------------------------------------------------------|


       Em.                                   C
e|-----------------------------------------------------------------------------|
B|---8-------8-8-7-8-10-8-7-8----8---------8-8-7-8-10-8-7-8--------------------|
G|---9--x9----------------------------9---x9-----------------------------------|
D|---9---------------------------------10--------------------------------------|
A|---7---------------------------------10--------------------------------------|
E|--------------------------------------8--------------------------------------|

       Em.                                     D
e|-----------------------------------------------------------------------------|
B|---8-------8-8-7-8-10-8-7-8------7-------------------------------------------|
G|---9--x9------------------------------7-------x9-----------------------------|
D|---9-----------------------------------7-------------------------------------|
A|---7-----------------------------------5-------------------------------------|
E|-----------------------------------------------------------------------------|


Verse Chords
         Em.       C.             Gmaj.       B
e|-----7----------8-------------3------------7-----------------------------|
B|----8----------8--------------3------------7-----------------------------|
G|----9----------9-------------4------------8------------------------------|
D|----9----------10-----------5------------9-------------------------------|
A|----7----------10-----------5------------9-------------------------------|
E|----------------8------------3------------7------------------------------|


Chorus Chords

         Em.        C.          D.                D.
e|-----7----------8---------------------------2------------------------------|
B|----8----------8-----------7---------------3-------------------------------|
G|----9----------9-----------7--------or ---2--------------------------------|
D|----9----------10----------7--------------0--------------------------------|
A|----7----------10----------5-----------------------------------------------|
E|----------------8----------------------------------------------------------|

After chorus

       Em.                                   C
e|-----------------------------------------------------------------------------|
B|---8-------8-8-7-8-10-8-7-8----8---------8-8-7-8-10-8-7-8--------------------|
G|---9--x9----------------------------9---x9-----------------------------------|
D|---9---------------------------------10--------------------------------------|
A|---7---------------------------------10--------------------------------------|
E|--------------------------------------8--------------------------------------|

       Em.                                     D
e|-----------------------------------------------------------------------------|
B|---8-------8-8-7-8-10-8-7-8------7-------------------------------------------|
G|---9--x9------------------------------7-------x9-----------------------------|
D|---9-----------------------------------7-------------------------------------|
A|---7-----------------------------------5-------------------------------------|
E|-----------------------------------------------------------------------------|
comments
We did not receive enough feedback on this tab! Please rate:
print report bad tab
1 2 3 4 5
1 comment total.
+1 reply
bingtime 36 wrote on September 20 2014, 12:13 pm

Intro:

e:-----------------------------------------------------------
B:----8-10-8-7--7-8-10/12--12-10-8--7-8--10-8-7--8-7---------
G:--9------------------------------------------------9-------
D:-----------------------------------------------------------
A:-----------------------------------------------------------
E:-----------------------------------------------------------

e:-----------------------------------------------------------
B:----8-10-8-7--7-8-10/12--12-10-8--7-8--10-8-7--7-8-10-7----
G:--9-----------------------------------------------------9--
D:-----------------------------------------------------------
A:-----------------------------------------------------------
E:-----------------------------------------------------------

that other fill line:
e:-------------------------------7-8-7--------------
B:-----7-8/10-8--7-8-7----7-8-10-------10-8-7-8-10--
G:--9------------------9---------------------------- right into repeat x4
D:--------------------------------------------------
A:--------------------------------------------------
E:--------------------------------------------------

I want to post or [tab]
guest
You may want to rate the tab now too:
select rating
Please do not post tabs as comments. Select "correction" instead!