Oops, an error
Loading. Please wait.

Clock Strikes Midnight Tab

3,188 views 3 this week
4 commentsread comments
1 2 3 4 5
x 12
add to favorites
launch autoscroll
font size
0
reset
how to read this tab
guitar tuner
Autoscroll
slow
fast
+/-
esc
set tempo
stop
Help us to improve Ultimate-Guitar.com Take our survey!
×
Author
Paddy and the rats - Clock strikes midnight (intro/theme) 
I write this by hear! Have a good time !:D

A magyarokat kérném tolják fel a pontozást ha tetszik és
irjanak bátran ha valami probléma van!


By:Prens prens282@gmail.com

e:-------0-----------------------------------|
H:---------3-1----1---------3-3-3--1--0------|
G:--0--2--------2----2-0-0---------------2-2-|
D:-------------------------------------------|
A:-------------------------------------------|
E:-------------------------------------------|


e:-------0------------------4-4-4--4-1--0-0--|
H:---------3-1----1--------------------------|
G:--0--2--------2----2-0-0-------------------|
D:-------------------------------------------|
A:-------------------------------------------|
E:-------------------------------------------|


e:-12-12-12-10-8--10-10-10-8-7--8-8-8-10-8--7-7-|
H:----------------------------------------------|
D:----------------------------------------------|
G:----------------------------------------------|
A:----------------------------------------------|
E:----------------------------------------------|

                            Here comes in the 2nd guitar!/ Itt jön be a 2. gitár!
                             V
e:-------0-----------------------------------|
H:---------3-1----1---------3-3-3--1--0------|
G:--0--2--------2----2-0-0---------------2-2-|
D:-------------------------------------------|
A:-------------------------------------------|
E:-------------------------------------------|
Suggest correction
comments
print report bad tab
4 comments total. Showing first comments.
0 reply
ledzep84 10 May 27, 2011 10:38 AM

Köszi szépen a tabot, frankón műkszik.

0 reply
csevi 720 Jun 29, 2011 03:04 PM

e:-------0------------------3-3-3--4-1--0-0--|
H:---------3-1----1--------------------------|
G:--0--2--------2----2-0-0-------------------|
D:-------------------------------------------|
A:-------------------------------------------|
E:-------------------------------------------|

...szerintem, de amugy szép munka:)

0 reply
Prens 25 Aug 10, 2011 11:22 AM

Igazad van miután beküldtem én is észrevettem de szerintem ez a helyes:
e:-------0------------------3-3-3--3-1--0-0--|
H:---------3-1----1--------------------------|
G:--0--2--------2----2-0-0-------------------|
D:-------------------------------------------|
A:-------------------------------------------|
E:-------------------------------------------|

guest
You may want to rate the tab now too:
select rating
Wanna post a correction for this tab? Suggest correction