Oops, an error
Loading. Please wait.

Hitam Tab

by Padi
2,392 views 6 this week
no commentswrite comment
1 2 3 4 5
please rate
add to favorites
launch autoscroll
font size
0
reset
how to read this tab
guitar tuner
Autoscroll
slow
fast
+/-
esc
set tempo
stop
Help us to improve Ultimate-Guitar.com Take our survey!
×
Author
Artist : Padi
Song   : Hitam



intro : 3X
                                  
|-------------10-9-10/12\10-------|
|--2----8--10---------------10-8~~|
|--2------------------------------|
|--2------------------------------|
|--0------------------------------|
|---------------------------------|


|----------9----9--9b11-7-|------------------------------|
|-------10---10-----------|---------12----12---12-10b11~~|
|-----9-------------------|----9--------9----9-----------|
|-------------------------|--9---9-----------------------|
|--0----------------------|------------------------------|
|-------------------------|------------------------------|


|---------15---------14------12----10---10----10|
|-----13-------12\11----11\9---8/10--10----10---|
|---12------------------------------------------|
|-----------------------------------------------|
|-----------------------------------------------|
|-----------------------------------------------|

|----------------10-----------------|
|-10--12-10-12-10---12-10--12b13----|
|--------------------------------9--|
|-----------------------------------|
|-----------------------------------|
|-----------------------------------|

reff:
harmonic 
            A
|-------------------------|---|-----------|
|----------------*5-5-5-5-|---|-----------|
|----------------*5-5-5-5-|---|-6-7-9/11~~|
|-------------------------|---|-----------|
|----------*555x----------|---|-----------|
|----x-x-x-*555x----------|---|-----------|

            Dm                                      A   
|---------|----|--7-----------------|--------------|--|-----------|
|---------|----|--8--8b10-6---------|--------------|--|-----------|
|-9-7-6-7-|----|--7---------9-7-9-6-|--------------|--|-6-7-9/11~~|
|---------|----|--------------------|--------------|--|-----------|
|---------|----|--------------------|------------4-|--|-----------|
|---------|----|--------------------|5-222-5-22-2--|--|-----------|

           Dm                                        Intro   A
|-------|----|-----------------|--------------------|-----|----|
|-------|----|-----------------|------------------2-|-----|----|
|9-7-6-7|----|-12/14\12-11/1212|12/14\12-11/12----2-|-----|----|
|-------|----|-----------------|------------------2-|-----|----|
|-------|----|-10/12\10--9/1010|10/12\10--9/10----0-|-----|----|
|-------|----|-----------------|--------------------|-----|----|


guitar solo

|------------9----8---6-------------|------9----8---6-------------|
|------------10---9---7--x-7--6-6\4-|------10---9---7--x-7--6-6\4-|
|------------9----8---6--x-6--5-5\3-|------9----8---6--x-6--5-5\3-|
|-----------------------------------|-----------------------------|
|-----------------------------------|-----------------------------|
|--*5 05-3-0------------------------|-3--0------------------------|

  A   reff  outtro

|---|-----|--------10-9----------9-8-|-9p6--9p6--9p6--9p6~~|
|---|-----|----------------------x---|---------------------|
|---|-----|-7-8-10-------7-8-10------|---------------------|
|---|-----|--------------------------|---------------------|
|---|-----|--------------------------|---------------------|
|---|-----|--------------------------|---------------------|


ket:
*= hormonic
Suggest correction
Give kudos to tab author, rate the tab!
1 2 3 4 5
comments
print report bad tab
guest
You may want to rate the tab now too:
select rating
Wanna post a correction for this tab? Suggest correction