Oops, an error
Loading. Please wait.

Celestial Entrance album bass

37 views 1 this week
no commentswrite comment
1 2 3 4 5
2 more votes to show rating
add to favorites
×
Save as Personal and add changes to this tab that will be seen only by you. Learn more ›
×
You can save this tab as Personal to edit and correct it or add notes. All changes will be seen only by you. Learn more »
launch autoscroll
font size
0
reset
guitar tuner
edit
Autoscroll
slow
fast
+/-
esc
set tempo
stop
Author
Difficulty
Hey everyone, this is my album tab of Pagan's Mind's second album, Celestial Entrance. I've tabbed out all
the individual songs, but thought a single collated edition of the whole thing would be useful. This one's
all about aliens and mysticism! Enjoy!

Track listing:
1. THROUGH OSIRIS' EYES
2. ENTRANCE STARGATE
3. ...OF EPIC QUESTIONS
4. DIMENSIONS OF FIRE
5. DREAMSCAPE LUCIDITY
6. THE SEVEN SACRED PROMISES
7. BACK TO THE MAGIC OF CHILDHOOD 
8. IN BRILLIANT WHITE LIGHT (TACET)
9. AEGEAN SHORES
10. THE PROPHECY OF PLEIADES




                              1. THROUGH OSIRIS' EYES

(1.24) Intro
     E  Q.     Q.     S S    E  Q.     S S S S S S S S    E  Q.     H         
C||-----------------------|----------------------------|---------------------|
G||-----------------------|----------------------------|---------------------|
D||-----------------------|----------------------------|---------------------|
A||-----------------------|----------------------------|---------------------|
E||-----------------------|----------------------------|---------------------|
B||--3------------------3-|--3-----------3---3---3---3-|--3------------------|



  S T T S S S S S S S T T S S E  E     S S S S S S S S S S S S S S S S  
------------------------------------|----------------------------------|
------------------------------------|----------------------------------|
------------------------------------|----------------------------------|
--5-6-5-4---4-----------------------|----------------------------------|
----------6---6-5-3-2-2-3-2---------|--0-0-0-0-0-0-0-0-0-0-0-0-0-0-0-0-|
----------------------------4-3-----|----------------------------------|



  S S S S S S S S S S  E   E  S S    S S S S S S S S S S S S S S S S  
----------------------------------|----------------------------------|
----------------------------------|----------------------------------|
----------------------------------|----------------------------------|
----------------------12--11--8-7-|----------------------------------|
--0-0-0-0-0-0-0-0-0-0-------------|--0-0-0-0-0-0-0-0-0-0-0-0-0-0-0-0-|
----------------------------------|----------------------------------|



  S S S S S S S S S S S S S S S S    S S S S S S S S S S S S S S S S  
----------------------------------|----------------------------------|
----------------------------------|----------------------------------|
----9-----8-----7-----6-----------|----------------------------------|
--7---7-6---6-5---5-4---4-3-2-1-0-|----------------------------------|
----------------------------------|----------------------------------|
----------------------------------|--3-3-3-3-3-3-3-3-3-3-3-3-3-3-3-3-|



  S S S S S S S S S S E  E  S S    S S S S S S S S S S S S S S S S  
--------------------------------|----------------------------------|
--------------------------------|----------------------------------|
--------------------------------|----------------------------------|
--------------------------------|----------------------------------|
----------------------3--2------|----------------------------------|
--3-3-3-3-3-3-3-3-3-3-------4-3-|--L-3-3-3-3-3-3-3-3-3-3-3-3-3-3-3-|



  S S S T T S S S S S S S S S S S S    S S S S S S S S S S S S S S S S  
------------------------------------|----------------------------------|
------------------------------------|----------------------------------|
------4-4-5-4-----------4-5-7-5-8-7-|----------------------------------|
--5-6---------6-5-3-5-6-------------|----------------------------------|
------------------------------------|--0-0-0-0-0-0-0-0-0-0-0-0-0-0-0-0-|
------------------------------------|----------------------------------|



  S S S S S S S S S S  E   E  S S    S S S S S S S S S S S S S S S S  
----------------------------------|----------------------------------|
----------------------------------|----------------------------------|
----------------------------------|----------------------------------|
----------------------12--11--8-7-|----------------------------------|
--0-0-0-0-0-0-0-0-0-0-------------|--0-0-0-0-0-0-0-0-0-0-0-0-0-0-0-0-|
----------------------------------|----------------------------------|

                                    (2.04) Awyeah

                            
  S S S S S S S S S S S S S S S S    E.  E.  E  H         
----------------------------------|----------------------|
----------------------------------|----------------------|
----9-----8-----7-----6-----------|----------------------|
--7---7-6---6-5---5-4---4-3-2-1-0-|----------------------|
----------------------------------|----------------------|
----------------------------------|--3---3---3--L--------|



  E.  E.  E  H           E.  E.  E  H           H        H         
----------------------|----------------------|--------------------|
----------------------|----------------------|--------------------|
----------------------|----------------------|--------------------|
----------------------|------5---------------|--------------------|
----------------------|----------------------|--3--------1--------|
--3---3---3--L--------|--3-------3--L--------|--------------------|


  E.  E.  E  H           E.  E.  E  H           E.  E.  E  H         
----------------------|----------------------|----------------------|
----------------------|----------------------|----------------------|
----------------------|----------------------|----------------------|
------5---------------|----------1--L--------|--5-------------------|
----------------------|------1---------------|------5---------------|
--3-------3--L--------|--3-------------------|----------3--L--------|



  Q.     S S S S S S S S S S    E.  S E.  S S S E  E  S S  
-----------------------------|----------------------------|
-----------------------------|----------------------------|
-----------7-8-5-7---5-------|----------------------------|
-------------------8---7-8-7-|----------------------------|
-----------------------------|----------------------------|
--8------L-------------------|--3---3-----1-3-1-3-----1-3-|



  E.  S E.  S S S E  E  E     E.  S E.  S S S E  Q     
---------------------------|--------------------------|
---------------------------|--------------------------|
---------------------------|--------------------------|
---------------------------|--------------------------|
---------------------------|--------------------------|
--3---3-----1-3-1-3--3--1--|--3---3-----1-3-1-3--3----|



  Q.     S S S S S S S S S S    S S S S S S S S S S S S S S S S  
-----------------------------|----------------------------------|
-----------------------------|----------------------------------|
-----------------------------|----------------------------------|
-----------------------------|----------------------------------|
-----------5-6-3-5-----------|----------------------------------|
--8------L---------6-7-5-6-5-|--1-3-3-1-3-3-1-3-3-1-3-3---1-3-3-|



  S S S S S S S S S S S S S S S S    S S S S S S S S S S S S S S S S  
----------------------------------|----------------------------------|
----------------------------------|----------------------------------|
----------------------------------|----------------------------------|
----------------------------------|----------------------------------|
----------------------------------|----------------------------------|
--1-3-3-1-3-3-1-3-3-1-3-3---1-3-3-|--1-3-3-1-3-3-1-3-3-1-3-3---1-3-3-|

               

                       (2.48) to 9/8

  H        H           H         H        E     H.           E.  S S S  
--------------------|------------------------|-------------------------|
--------------------|------------------------|-------------------------|
--------------------|------------------------|-------------------------|
--------------------|------------------------|-------------------------|
--3-----------------|--8\--------------------|-------------------4-4-4-|
-----------2--------|------------------------|-------------------------|



  S S S S S S S S S S S S S S S S S S    S S S S S S S S S S S S S S S S S S  
--------------------------------------|--------------------------------------|
--------------------------------------|--------------------------------------|
--------------------------------------|--------------------------------------|
--3-3-3-3---3-3-3-3---3-3-3-3---3-3-3-|--3-3-3-3---3-3-3-3---3-3-3-3---3-3-3-|
--------------------------------------|--------------------------------------|
--------------------------------------|--------------------------------------|


  S S S S S S S S S S S S S S S S S S    S S S S S S S S S S S S S S S S S S  
--------------------------------------|--------------------------------------|
--------------------------------------|--------------------------------------|
--------------------------------------|--------------------------------------|
--3-3-3-3---3-3-3-3---3-3-3-3---3-3-3-|--3-3-3-3---3-3-3-3---3-3-3-3---3-3-3-|
--------------------------------------|--------------------------------------|
--------------------------------------|--------------------------------------|


  S S S S S S S S S S S S S S S S S S    S S S S S S S S S S S S S S S S S S  
--------------------------------------|--------------------------------------|
--------------------------------------|--------------------------------------|
--------------------------------------|--------------------------------------|
--------------------------------------|--------------------------------------|
--------------------------------------|--------------------------------------|
--3-3-3-3---3-3-3-3---3-3-3-3---3-3-3-|--3-3-3-3---3-3-3-3---3-3-3-3---3-3-3-|


  S S S S S S S S S S S S S S S S S S    S S S S S S S S S S S S S E.   
--------------------------------------|--------------------------------|
--------------------------------------|--------------------------------|
--------------------------------------|--------------------------------|
--3-3-3-3---3-3-3-3---3-3-3-3---3-3-3-|--3-3-3-3---3-3-3-3---3-3-3-3---|
--------------------------------------|--------------------------------|
--------------------------------------|--------------------------------|


(3.19) Verse 1

  S S S S S S S S S S S S S S E     S S S S S S S S S S S S S E.    
---------------------------------|---------------------------------|
---------------------------------|---------------------------------|
---------------------------------|---------------------------------|
--5-5-5-5---5-5-5-5---5-5-5-5----|--5-5-5-5---5-5-5-5---5-5-5-5\---|
---------------------------------|---------------------------------|
---------------------------------|---------------------------------|


  S S S S S S S S S S S S S S E     S S S S S S S S S S S S S S S S  
---------------------------------|----------------------------------|
---------------------------------|----------------------------------|
---------------------------------|----------------------------------|
---------------------------------|----------------------------------|
--0-0-0-0---0-0-0-0---0-0-0-0----|--0-0-0-0---0-0-0-0---0-0-0---0-0-|
---------------------------------|----------------------------------|


  S S S S S S S S S S S S S S E     S S S S S S S S S S S S S E.    
---------------------------------|---------------------------------|
---------------------------------|---------------------------------|
---------------------------------|---------------------------------|
--5-5-5-5---5-5-5-5---5-5-5-5----|--5-5-5-5---5-5-5-5---5-5-5-5\---|
---------------------------------|---------------------------------|
---------------------------------|---------------------------------|


  S S S S S S S S S S S S S S E     S S S S S S S S S S S S S E.   
---------------------------------|--------------------------------|
---------------------------------|--------------------------------|
---------------------------------|--------------------------------|
---------------------------------|--------------------------------|
--0-0-0-0---0-0-0-0---0-0-0-0----|--0-0-0-0---0-0-0-0---0-0-0-1---|
---------------------------------|--------------------------------|



  S S S S S S S S S S S S S S S S S S    S S S S S S S S S S S S S S S S S S  
--------------------------------------|--------------------------------------|
--------------------------------------|--------------------------------------|
--------------------------------------|--------------------------------------|
--5-5-5-5---4-4-4-4---3-3-3-3---2-2-2-|--5-5-5-5---4-4-4-4---3-3-3-3---2-2-2-|
--------------------------------------|--------------------------------------|
--------------------------------------|--------------------------------------|


  S S S S S S S S S S S S S S S S    S S S S S S S S S S S S S S S S    S S E   
----------------------------------|----------------------------------|---------|
----------------------------------|----------------------------------|---------|
----------------------------------|----------------------------------|---------|
----------------------------------|----------------------------------|---------|
----------------------------------|----------------------------------|---------|
--3-3-3-3-2-2-2-2-1-1-1-1-0-0-0-0-|--3-3-3-3-2-2-2-2-1-1-1-1-0-0-0-0-|--0-0-0--|


(3.53) Prechorus 1

  S S S S S S S S S S S S S S S S    S S S S S S S S S S S S S S S S  
----------------------------------|----------------------------------|
----------------------------------|----------------------------------|
----------------------------------|----------------------------------|
----------------------------------|------------------0-0-0-0-2-2-----|
--2-2-0-2-L-0-2-2-0-2-L-0-2-2-0-2-|--L-0-2-2-0-2-L-0-------------0-0-|
----------------------------------|----------------------------------|


  S S S S S S S S S S S S S S S S    S S S S S S S S S S S S S S S S  
----------------------------------|----------------------------------|
----------------------------------|----------------------------------|
----------------------------------|----------------------------------|
----------------------------------|------------------0-0-0-0-0-0-0-0-|
--2-2-0-2-L-0-2-2-0-2-L-0-2-2-0-2-|--3-3-3-3-3-3-3-3-----------------|
----------------------------------|----------------------------------|


(4.03) Chorus 1

  H        Q.     E     H        Q.     E     H        Q.     E   
---------------------|---------------------|---------------------|
---------------------|---------------------|---------------------|
---------------------|---------------------|---------------------|
--2--------0---------|---------------------|---------------------|
------------------3--|--L--------2------0--|--L--------3------2--|
---------------------|---------------------|---------------------|


  H        Q    Q       H        Q.     E     H        Q.     E   
---------------------|---------------------|---------------------|
---------------------|---------------------|---------------------|
---------------------|---------------------|---------------------|
-----------1---------|--2--------0---------|---------------------|
--L-------------2----|------------------3--|--L--------2------0--|
---------------------|---------------------|---------------------|


  H        H           S S S S S S S S S S S S S S S S  
--------------------|----------------------------------|
--------------------|----------------------------------|
--------------------|----------------------------------|
--------------------|----------------------------------|
--L--------3--------|--2-2-2-2-2-2-2-2-2-2-2-2-2-2-2-2-|
--------------------|----------------------------------|


  S S S S S S S S S S S S S S E     S S S S S S S S S S S S S S S S  
---------------------------------|----------------------------------|
---------------------------------|----------------------------------|
---------------------------------|----------------------------------|
------------------------------0--|--2-2-2-2-2-2-2-2-2-2-2-2-2-2-2-2-|
--2-2-2-2-2-2-2-2-3-3-3-3-3-3----|----------------------------------|
---------------------------------|----------------------------------|

                                          (4.33) Verse 2

  S S S S S S S S S S S S S S S S          S S S S S S S S S S S S S S E   
----------------------------------|-----|---------------------------------|
----------------------------------|-----|---------------------------------|
----------------------------0-2-5-|-----|---------------------------------|
--3-3-3-3-3-3-3-3-3-3-3-3-3-------|-----|--5-5-5-5---5-5-5-5---5-5-5-5----|
----------------------------------|-----|---------------------------------|
----------------------------------|-----|---------------------------------|


  S S S S S S S S S S S S S E.      S S S S S S S S S S S S S S E   
---------------------------------|---------------------------------|
---------------------------------|---------------------------------|
---------------------------------|---------------------------------|
--5-5-5-5---5-5-5-5---5-5-5-5\---|---------------------------------|
---------------------------------|--0-0-0-0---0-0-0-0---0-0-0-0----|
---------------------------------|---------------------------------|


  S S S S S S S S S S S S S S S S    S S S S S S S S S S S S S S E   
----------------------------------|---------------------------------|
----------------------------------|---------------------------------|
----------------------------------|---------------------------------|
----------------------------------|--5-5-5-5---5-5-5-5---5-5-5-5----|
--0-0-0-0---0-0-0-0---0-0-0---0-0-|---------------------------------|
----------------------------------|---------------------------------|


  S S S S S S S S S S S S S E.      S S S S S S S S S S S S S S E   
---------------------------------|---------------------------------|
---------------------------------|---------------------------------|
---------------------------------|---------------------------------|
--5-5-5-5---5-5-5-5---5-5-5-5\---|---------------------------------|
---------------------------------|--0-0-0-0---0-0-0-0---0-0-0-0----|
---------------------------------|---------------------------------|


  S S S S S S S S S S S S S E.     S S S S S S S S S S S S S S S S S S  
--------------------------------|--------------------------------------|
--------------------------------|--------------------------------------|
--------------------------------|--------------------------------------|
--------------------------------|--5-5-5-5---4-4-4-4---3-3-3-3---2-2-2-|
--0-0-0-0---0-0-0-0---0-0-0-1---|--------------------------------------|
--------------------------------|--------------------------------------|



                                         |--3--|  |--3--|  |--3--|  |--3--|   
  S S S S S S S S S S S S S S S S S S    E  E  E  E  E  E  E  E  E  E  E  E   
--------------------------------------|--------------------------------------|
--------------------------------------|--------------------------------------|
--------------------------------------|--------------------------------------|
--5-5-5-5---4-4-4-4---3-3-3-3---2-2-2-|--------------------------------------|
--------------------------------------|--------------------------------------|
--------------------------------------|--3--3--3--2--2--2--1--1--1--0--0--0--|


                                        (5.07) Chorus 2

  |--3--|  |--3--|  |--3--|  |--3--|                         
  E  E  E  E  E  E  E  E  E  E  E  E     H        Q.     E   
--------------------------------------|---------------------|
--------------------------------------|---------------------|
--------------------------------------|---------------------|
--------------------------------------|--2--------0---------|
--------------------------------------|------------------3--|
--3--3--3--2--2--2--1--1--1--0--0--0--|---------------------|


  H        Q.     E     H        Q.     E     H        Q    Q     
---------------------|---------------------|---------------------|
---------------------|---------------------|---------------------|
---------------------|---------------------|---------------------|
---------------------|---------------------|-----------1---------|
--L--------2------0--|--L--------3------2--|--L-------------2----|
---------------------|---------------------|---------------------|


  H        Q.     E     H        Q.     E     H        H         
---------------------|---------------------|--------------------|
---------------------|---------------------|--------------------|
---------------------|---------------------|--------------------|
--2--------0---------|---------------------|--------------------|
------------------3--|--L--------2------0--|--L--------3--------|
---------------------|---------------------|--------------------|


  S S S S S S S S S S S S S S S S    S S S S S S S S S S S S S S S S  
----------------------------------|----------------------------------|
----------------------------------|----------------------------------|
----------------------------------|----------------------------------|
----------------------------------|----------------------------------|
--2-2-2-2-2-2-2-2-2-2-2-2-2-2-2-2-|--0-0-0-0-0-0-0-0-0-0-0-0-0-0-0-0-|
----------------------------------|----------------------------------|


  S S S S S S S S S S S S S S S S    S S S S S S S S S S S S S S S S  
----------------------------------|----------------------------------|
----------------------------------|----------------------------------|
----------------------------------|----------------------------------|
----------------------------------|----------------------------------|
----------------------------------|----------------------------------|
--3-3-3-3-3-3-3-3-3-3-3-3-3-3-3-3-|--1-1-1-1-1-1-1-1-1-1-1-1-1-1-1-1-|


  T T S S S S S S S S S S S S S S S    T T S S S S S S S S S S S S S S S  
------------------------------------|------------------------------------|
------------------------------------|------------------------------------|
------------------------------------|------------------------------------|
------------------------------------|------------------------------------|
--2-2-2-2-2-2-2-2-2-2-2-2-2-2-2-2-2-|--0-0-0-0-0-0-0-0-0-0-0-0-0-0-0-0-0-|
------------------------------------|------------------------------------|

                                     (5.44) Bridge - Solo

  T T S S S S S S S S S S S S S S S    E  E  H.            
------------------------------------|---------------------|
------------------------------------|---------------------|
------------------------------------|---------------------|
------------------------------------|--3--3---------------|
------------------------------------|---------------------|
--3-3-3-3-3-3-3-3-3-3-3-3-3-3-3-3-3-|---------------------|


  E  E  H.              E  E  H.              E  E  Q    Q    S E.   
---------------------|---------------------|------------------------|
---------------------|---------------------|------------------------|
---------------------|---------------------|------------------------|
--3--3---------------|--7--7---------------|--7--7--------------5---|
---------------------|---------------------|------------------------|
---------------------|---------------------|------------------------|


  E  E  H.              E  E  H.              E  E  H.            
---------------------|---------------------|---------------------|
---------------------|---------------------|---------------------|
---------------------|---------------------|---------------------|
--3--3---------------|--3--3---------------|---------------------|
---------------------|---------------------|--0--0---------------|
---------------------|---------------------|---------------------|


  E  E  Q    Q    S E.     E  E  Q    E  E  Q       E  E  Q    E  E  Q     
------------------------|------------------------|------------------------|
------------------------|------------------------|------------------------|
------------------------|------------------------|------------------------|
------------------------|------------------------|------------------------|
--0--0------------------|------------------------|------------------------|
--------------------3---|--1--1-------1--1-------|--1--1-------1--1-------|


  E  E  Q    E  E  Q       E  E  Q    E  E  E  S S    E  E  Q    E  E  Q     
------------------------|--------------------------|------------------------|
------------------------|--------------------------|------------------------|
------------------------|--------------------------|------------------------|
------------------------|------------------------2-|--3--3-------3--3-------|
------------------------|-------------------2--3---|------------------------|
--2--2-------2--2-------|--2--2-------2--5---------|------------------------|


  E  E  Q    E  E  Q       E  E  Q    E  E  Q       E  E  Q    E  S S S E.   
------------------------|------------------------|--------------------------|
------------------------|------------------------|--------------------------|
------------------------|------------------------|--------------------------|
--3--3-------3--3-------|--4--4-------4--4-------|--4--4-------4--4-4-4-2---|
------------------------|------------------------|--------------------------|
------------------------|------------------------|--------------------------|


(6.26) Descent to Osiris

  S S S S S S S S S S S S S S S S    S S S S S S S S S S S S S S S S  
----------------------------------|----------------------------------|
----------------------------------|----------------------------------|
----------------------------------|----------------------------------|
--0-0-0-0-0-0-0-0-0-0-0-0-0-0-0-0-|--0-0-0-0-0-0-0-0-0-0-0-0-0-0-0-0-|
----------------------------------|----------------------------------|
----------------------------------|----------------------------------|


  S S S S S S S S S S S S S S S S    S S S S T T S S T T S S S S S S S S  
----------------------------------|--------------------------------------|
----------------------------------|--------------------------------------|
----------------------------------|--------------------------------------|
--0-0-0-0-0-0-0-0-0-0-0-0-0-0-0-0-|--0-1-4-5-4-5-4-1-4-5-4-1-4-5-7-5-4-1-|
----------------------------------|--------------------------------------|
----------------------------------|--------------------------------------|


                              |--3--|                        
  S T T S S S S S S S T T S S E  E  E     H        H         
---------------------------------------|--------------------|
---------------------------------------|--------------------|
--7-8-7-6---7--------------------------|--------------------|
----------8---8-7-5-4-4-5-4---4--------|--------------------|
----------------------------6----6--5--|--3-----------------|
---------------------------------------|-----------4--------|


                   (6.44)

  W                   E  E  E  E  E  E  E  E     E  E  E  E  E  E  E  S S  
-------------------|--------------------------|---------------------------|
-------------------|--------------------------|---------------------------|
-------------------|--------------------------|---------------------------|
-------------------|--------------------------|---------------------------|
-------------------|--------------------------|---------------------------|
--L----------------|--3--3--3--3--3--3--3--3--|--3--3--3--3--3--3--3--3-3-|


  E  E  E  E  E  E  E  E     E  E  E  E  E  E  E  S S  
--------------------------|---------------------------|
--------------------------|---------------------------|
--------------------------|---------------------------|
--------------------------|---------------------------|
--0--0--0--0--0--0--0--0--|--0--0--0--0--0--0--2--0---|
--------------------------|-------------------------2-|


  E  E  E  E  E  E  E  E     E  E  E  E  E  E  S S S S  
--------------------------|----------------------------|
--------------------------|----------------------------|
--------------------------|----------------------------|
--------------------------|----------------------------|
--------------------------|------------------------2-5-|
--3--3--3--3--3--3--3--3--|--3--3--3--3--3--3--3-5-----|


  S S E  E  E  E  E  E  E     E  E  E  E  E  E  E  E   
---------------------------|--------------------------|
---------------------------|--------------------------|
---------------------------|--------------------------|
---------------------------|--------------------------|
--5-4-0--0--0--0--0--0--0--|--0--0--0--0--0--0--0--2--|
---------------------------|--------------------------|



  E  S S E  S S E  S S E  S S    E  S S E  S S E  S S E  S S  
------------------------------|------------------------------|
------------------------------|------------------------------|
------------------------------|------------------------------|
------------------------------|------------------------------|
------------------------------|------------------------------|
-----3-3----3-3----3-3----3-3-|-----3-3----3-3----3-3----3-3-|


  E  S S E  S S E  S S E  S S    E  S S E  S S E  S S S S S S  
------------------------------|-------------------------------|
------------------------------|-------------------------------|
------------------------------|-------------------------------|
------------------------------|-------------------------------|
-----0-0----0-0----0-0----0-0-|-----0-0----0-0----0-0---1-1-1-|
------------------------------|-------------------------------|


(7.14) Verse 3

  S S S S S S S S S S S S S S E     S S S S S S S S S S S S S E.    
---------------------------------|---------------------------------|
---------------------------------|---------------------------------|
---------------------------------|---------------------------------|
--5-5-5-5---5-5-5-5---5-5-5-5----|--5-5-5-5---5-5-5-5---5-5-5-5\---|
---------------------------------|---------------------------------|
---------------------------------|---------------------------------|


  S S S S S S S S S S S S S S E     S S S S S S S S S S S S S E.   
---------------------------------|--------------------------------|
---------------------------------|--------------------------------|
---------------------------------|--------------------------------|
---------------------------------|--------------------------------|
--0-0-0-0---0-0-0-0---0-0-0-0----|--0-0-0-0---0-0-0-0---0-0-0-1---|
---------------------------------|--------------------------------|


  S S S S S S S S S S S S S S S S S S    S S S S S S S S S S S S S S S S S S  
--------------------------------------|--------------------------------------|
--------------------------------------|--------------------------------------|
--------------------------------------|--------------------------------------|
--5-5-5-5---4-4-4-4---3-3-3-3---2-2-2-|--5-5-5-5---4-4-4-4---3-3-3-3---2-2-2-|
--------------------------------------|--------------------------------------|
--------------------------------------|--------------------------------------|


  S S S S S S S S S S S S S S S S    S S S S S S S S S S S S S S S S    S S E   
----------------------------------|----------------------------------|---------|
----------------------------------|----------------------------------|---------|
----------------------------------|----------------------------------|---------|
----------------------------------|----------------------------------|---------|
----------------------------------|----------------------------------|---------|
--3-3-3-3-2-2-2-2-1-1-1-1-0-0-0-0-|--3-3-3-3-2-2-2-2-1-1-1-1-0-0-0-0-|--0-0-0--|


  S S S S S S S S S S S S S S S S    S S S S S S S S S S S S S S S S  
----------------------------------|----------------------------------|
----------------------------------|----------------------------------|
----------------------------------|----------------------------------|
----------------------------------|------------------0-0-0-0-2-2-----|
--2-2-0-2-L-0-2-2-0-2-L-0-2-2-0-2-|--L-0-2-2-0-2-L-0-------------0-0-|
----------------------------------|----------------------------------|


  S S S S S S S S S S S S S S S S    S S S S S S S S S S S S S S S S  
----------------------------------|----------------------------------|
----------------------------------|----------------------------------|
----------------------------------|----------------------------------|
----------------------------------|------------------0-0-0-0-0-0-0-0-|
--2-2-0-2-L-0-2-2-0-2-L-0-2-2-0-2-|--3-3-3-3-3-3-3-3-----------------|
----------------------------------|----------------------------------|

(7.48) Chorus 3 

  H        Q.     E     H        Q.     E     Q.     S S Q.     E   
---------------------|---------------------|-----------------------|
---------------------|---------------------|-----------------------|
---------------------|---------------------|-----------------------|
--2--------0---------|---------------------|-----------------------|
------------------3--|--L--------2------0--|--L------0-2-3------2--|
---------------------|---------------------|-----------------------|


  H        Q    Q       Q.     S S Q.     E     Q.     S S Q.     E   
---------------------|-----------------------|-----------------------|
---------------------|-----------------------|-----------------------|
---------------------|-----------------------|-----------------------|
-----------1---------|--2--------2-0---------|-----------------------|
--L-------------2----|---------3----------3--|--L------0-3-2------0--|
---------------------|-----------------------|-----------------------|

                                            (8.09) Chorus 4
  H        Q.     E     H        Q    Q       H        Q.     E   
---------------------|---------------------|---------------------|
---------------------|---------------------|---------------------|
---------------------|---------------------|---------------------|
-----------0---------|-----------1---------|--2--------0---------|
--L---------------2--|--L-------------2----|------------------3--|
---------------------|---------------------|---------------------|


  H        Q.     E     Q.     S S Q.     E     H        Q    Q     
---------------------|-----------------------|---------------------|
---------------------|-----------------------|---------------------|
---------------------|-----------------------|---------------------|
---------------------|-----------------------|-----------1---------|
--L--------2------0--|--L------0-2-3------2--|--L-------------2----|
---------------------|-----------------------|---------------------|


 EEEEEEEEEEEEEEEEEEEEEEEEEEEEEYES 
                                                            
  H        E.  E.  E     H        E.  E.  E     Q    S S S S H         
----------------------|----------------------|------------------------|
----------------------|----------------------|------------------------|
----------------------|----------------------|-------2-0--------------|
--2--------0---0------|----------------------|-----------2-0----------|
-------------------3--|--L--------2---2---0--|--L------------3--------|
----------------------|----------------------|------------------------|


(8.27) Outro

  S S S S S S S S S S S S S S S S    S S S S S S S S S S S S S S S S  
----------------------------------|----------------------------------|
----------------------------------|----------------------------------|
----------------------------------|----------------------------------|
----------------------------------|----------------------------------|
--2-2-2-2-2-2-2-2-2-2-2-2-2-2-2-2-|--0-0-0-0-0-0-0-0-0-0-0-0-0-0-0-0-|
----------------------------------|----------------------------------|


  S S S S S S S S S S S S S S S S    S S S S S S S S S S S S S S S S  
----------------------------------|----------------------------------|
----------------------------------|----------------------------------|
----------------------------------|----------------------------------|
----------------------------------|----------------------------------|
----------------------------------|----------------------------------|
--3-3-3-3-3-3-3-3-3-3-3-3-3-3-3-3-|--1-1-1-1-1-1-1-1-1-1-1-1-1-1-1-1-|


  T T S S S S S S S S S S S S S S S    T T S S S S S S S S S S S S S S S  
------------------------------------|------------------------------------|
------------------------------------|------------------------------------|
------------------------------------|------------------------------------|
------------------------------------|------------------------------------|
--2-2-2-2-2-2-2-2-2-2-2-2-2-2-2-2-2-|--0-0-0-0-0-0-0-0-0-0-0-0-0-0-0-0-0-|
------------------------------------|------------------------------------|


  T T S S S S S S S S S S S S S S S    S  S S S S S S S S S S S S S S S       
------------------------------------|-----------------------------------|----|
------------------------------------|-----------------------------------|----|
------------------------------------|-----------------------------------|----|
------------------------------------|----10-----9-----8-----7-----------|----|
------------------------------------|--8----8-7---7-6---6-5---5-4-3-2-1-|----|
--3-3-3-3-3-3-3-3-3-3-3-3-3-3-3-3-3-|-----------------------------------|----|


  W                   E  E  H.             
-------------------|---------------------||
-------------------|---------------------||
-------------------|---------------------||
-------------------|---------------------||
--3----------------|--2--2---------------||
-------------------|---------------------||











                              2. ENTRANCE STARGATE

Intro
               S S S S E  S S S E.  S S S S    Q.     S S S S S S S S S S  3x
C||-------||--------------------------------|------------------------------||
G||-------||--------------------------------|------------------------------||
D||-------||*-------------------------------|-----------------------------*||
A||-------||*----------7------------------3-|--L------L-2-3-5-3-2-3-2-----*||
E||-------||---0-0-0-0----0-0-0-3---0-0-0---|-------------------------3-2--||
B||-------||--------------------------------|------------------------------||


  S S S S E  S S S E.  S S S S    W                 
-------------------------------|-------------------|
-------------------------------|-------------------|
-------------------------------|-------------------|
----------7--------------------|-------------------|
--0-0-0-0----0-0-0-3---0-0-0---|-------------------|
-----------------------------1-|--L----------------|



(0.15) Chug

  E  E  S S S S S S S S S S E     E  E  S S S S S S S S S S E   
-------------------------------|-------------------------------|
-------------------------------|-------------------------------|
-------------------------------|-------------------------------|
-------------------------------|-------------------------------|
-------------------------------|-------------------------------|
--0--0--0-0---0-0---0-0---0-0--|--0--0--0-0---0-0---0-0---0-1--|


  E  E  S S S S S S S S S S E     E  E  S S S S E  Q.      
-------------------------------|--------------------------|
-------------------------------|--------------------------|
-------------------------------|--------------------------|
-------------------------------|--------------------------|
-------------------------------|--------------------------|
--0--0--0-0---0-0---0-0---0-0--|--0--0--0-0---0-0---------|



  E  E  S S S S S S S S S S E     E  E  S S S S S S S S S S E   
-------------------------------|-------------------------------|
-------------------------------|-------------------------------|
-------------------------------|-------------------------------|
-------------------------------|-------------------------------|
-------------------------------|-------------------------------|
--0--0--0-0---0-0---0-0---0-0--|--0--0--0-0---0-0---0-0---0-1--|


  E  E  S S S S S S S S S S E     E  E  S S S S S S S S S S S S  
-------------------------------|--------------------------------|
-------------------------------|--------------------------------|
-------------------------------|--------------------------------|
-------------------------------|--------------------------------|
-------------------------------|----------------7-7-7-7-7-7-7-7-|
--0--0--0-0---0-0---0-0---0-0--|--0--0--0-0---0-----------------|

                                        

  W                   W                   E  E  E  E  E  E  E  E   
-------------------|-------------------|--------------------------|
-------------------|-------------------|--------------------------|
-------------------|-------------------|--------------------------|
-------------------|-------------------|--------------------------|
--3----------------|--5----------------|--0--0--0--0--0--0--0--0--|
-------------------|-------------------|--------------------------|



  E  E  E  E  E  E  E  E     E  E  E  E  E  E  E  E   
--------------------------|--------------------------|
--------------------------|--------------------------|
--------------------------|--------------------------|
--------------------5--7--|--------------------------|
--0--0--0--0--0--0--------|--0--0--0--0--0--0--0--0--|
--------------------------|--------------------------|


  E  E  E  E  E  E  E  E     E  E  E  E  E  E  E  E   
--------------------------|--------------------------|
--------------------------|--------------------------|
--------------------------|--------------------------|
-----------------------5--|--7--7--7--7--7--7--7--7--|
--0--0--0--0--5--6--7-----|--------------------------|
--------------------------|--------------------------|


  E  E  E  E  E  E  E  E     E  E  E  E  E  E  E  E   
--------------------------|--------------------------|
--------------------------|--------------------------|
--------------------------|--------------------------|
--5--5--5--5--5--5--5--5--|--4--4--4--4--4--4--4--4--|
--------------------------|--------------------------|
--------------------------|--------------------------|


                            (0.51) Vocals enter


  E  E  E  E  E  E  E  E     E  E  E  E  E  E  E  E   
--------------------------|--------------------------|
--------------------------|--------------------------|
--------------------------|--------------------------|
--3--3--3--3--3--2--------|--------------------------|
--------------------3--2--|--0--0--0--0--0--0--0--0--|
--------------------------|--------------------------|


  E  E  E  E  E  E  E  E     E  E  E  E  E  E  E  E   
--------------------------|--------------------------|
--------------------------|--------------------------|
--------------------------|--------------------------|
-----------------------2--|--0--0--0--0--0--0--0--0--|
--0--0--0--0--0--2--3-----|--------------------------|
--------------------------|--------------------------|


  E  E  E  E  E  E  E  E     E  E  E  E  E  E  E  E   
--------------------------|--------------------------|
--------------------------|--------------------------|
--------------------------|--------------------------|
--0--0--0--0--0-----0--2--|--3--3--3--3--3--3--3--3--|
-----------------3--------|--------------------------|
--------------------------|--------------------------|


  E  E  E  E  E  E  E  E     E  E  E  E  E  E  E  E   
--------------------------|--------------------------|
--------------------------|--------------------------|
--------------------------|--------------------------|
--3--3--3--3--3--2--------|--------------------------|
--------------------3--0--|--1--1--1--1--1--1--1--1--|
--------------------------|--------------------------|
 
                            (1.06) Prechorus 1 

  E  E  E  E  E  E  E  E     E  E  E  E  E  E  E  E   
--------------------------|--------------------------|
--------------------------|--------------------------|
--------------------------|--------------------------|
--------------------------|--------------------------|
--1--3--3--5--5--1--1--1--|--0--0--0--0--0--0--0--0--|
--------------------------|--------------------------|


  E  E  E  E  E  E  E  E     E  E  E  E  E  E  E  E   
--------------------------|--------------------------|
--------------------------|--------------------------|
--------------------------|--------------------------|
--------------------------|--------------------------|
--0--0--0--0--0--0--0--0--|--------------------------|
--------------------------|--3--3--3--3--3--3--3--3--|


  E  E  E  E  E  E  E  E     E  E  E  E  E  E  E  E   
--------------------------|--------------------------|
--------------------------|--------------------------|
--------------------------|--------------------------|
--------------------------|--------------------------|
--------------------------|--3--3--3--3--3--3--3--3--|
--3--3--3--3--3--3--3--3--|--------------------------|


  E  E  E  E  E  E  E  E     E  E  E  E  E  E  E  E   
--------------------------|--------------------------|
--------------------------|--------------------------|
--------------------------|--------------------------|
--------------------------|--------------------------|
--3--3--3--3--3--3--0-----|--------------------------|
-----------------------3--|--1--1--1--1--1--1--1--1--|




  E  E  E  E  E  E  E  E     E  E  S S S S S S S S S S E   
--------------------------|-------------------------------|
--------------------------|-------------------------------|
--------------------------|-------------------------------|
--5--5--5--5--5--5--5--5--|-------------------------------|
--------------------------|-------------------------------|
--------------------------|--0--0--0-0---0-0---0-0---0-0--|


  E  E  S S S S S S S S S S E     E  E  S S S S S S S S S S E   
-------------------------------|-------------------------------|
-------------------------------|-------------------------------|
-------------------------------|-------------------------------|
-------------------------------|-------------------------------|
-------------------------------|-------------------------------|
--0--0--0-0---0-0---0-0---0-1--|--0--0--0-0---0-0---0-0---0-0--|


                              (1.30) Verse 2


  E  E  S S S S E  Q.        E  E  E  E  E  E  E  E   
--------------------------|--------------------------|
--------------------------|--------------------------|
--------------------------|--------------------------|
--------------------------|--------------------------|
--------------------------|--0--0--0--0--0--0--0--0--|
--0--0--0-0---0-0---------|--------------------------|


  E  E  E  E  E  E  E  E     E  E  E  E  E  E  E  E   
--------------------------|--------------------------|
--------------------------|--------------------------|
--------------------------|--------------------------|
-----------------------2--|--0--0--0--0--0--0--0--0--|
--0--0--0--0--0--2--3-----|--------------------------|
--------------------------|--------------------------|


  E  E  E  E  E  E  E  E     E  E  E  E  E  E  E  E   
--------------------------|--------------------------|
--------------------------|--------------------------|
--------------------------|--------------------------|
--0--0--0--0--0-----0--2--|--3--3--3--3--3--3--3--3--|
-----------------3--------|--------------------------|
--------------------------|--------------------------|


  E  E  E  E  E  E  E  E     E  E  E  E  E  E  E  E   
--------------------------|--------------------------|
--------------------------|--------------------------|
--------------------------|--------------------------|
--3--3--3--3--3--2--------|--------------------------|
--------------------3--0--|--1--1--1--1--1--1--1--1--|
--------------------------|--------------------------|


                             (1.46) Prechorus 2

  E  E  E  E  E  E  E  E     E  E  E  E  E  E  E  E   
--------------------------|--------------------------|
--------------------------|--------------------------|
--------------------------|--------------------------|
--------------------0-----|--------------------------|
--1--1--1--1--1--3-----1--|--0--0--0--0--0--0--0--0--|
--------------------------|--------------------------|


  E  E  E  E  E  E  E  E     E  E  E  E  E  E  E  E   
--------------------------|--------------------------|
--------------------------|--------------------------|
--------------------------|--------------------------|
--------------------------|--------------------------|
--0--0--0--0--0--0--0--0--|-----2--2-----2--2-----2--|
--------------------------|--------------------------|


  E  E  E  E  E  E  E  E     E  E  E  E  E  E  E  E   
--------------------------|--------------------------|
--------------------------|--------------------------|
--------------------------|--------------------------|
--------------------------|--------------------------|
--2-----2--2-----2--2-----|--3--3--3--3--3--3--3--3--|
--------------------------|--------------------------|


  E  E  E  E  E  E  E  E     E  E  E  E  E  E  E  E   
--------------------------|--------------------------|
--------------------------|--------------------------|
--------------------------|--------------------------|
--------------------------|--------------------------|
--3--3--3--3--3--3--0-----|--------------------------|
-----------------------3--|--1--1--1--1--1--1--1--1--|


                           (2.02) Chorus 1

  E  E  E  E  E  E  E  E     S S S S S S S S S S S S S S S S  
--------------------------|----------------------------------|
--------------------------|----------------------------------|
--------------------------|----------------------------------|
--------------------------|----------------------------------|
--------------------------|--1-1-1-1-1-1-1-1-1-1-1-1-1-1-1-1-|
--3--3--3--3--3--3--3--3--|----------------------------------|




  S S S S S S S S S S S S S S S S    E  E  S S S S S S S S S S E   
----------------------------------|-------------------------------|
----------------------------------|-------------------------------|
----------------------------------|-------------------------------|
----------------------------------|-------------------------------|
--1-1-1-1-1-1-1-1-1-1-1-1-1-1-1-1-|-------------------------------|
----------------------------------|--0--0--0-0---0-0---0-0---0-0--|


  E  E  S S S S S S S S S S E     S S S S S S S S S S S S S S S S  
-------------------------------|----------------------------------|
-------------------------------|----------------------------------|
-------------------------------|----------------------------------|
-------------------------------|----------------------------------|
-------------------------------|--1-1-1-1-1-1-1-1-1-1-1-1-1-1-1-1-|
--0--0--0-0---0-0---0-0---0-0--|----------------------------------|


  S S S S S S S S S S S S S S S S    E  E  S S S S S S S S S S E   
----------------------------------|-------------------------------|
----------------------------------|-------------------------------|
----------------------------------|-------------------------------|
----------------------------------|-------------------------------|
--1-1-1-1-1-1-1-1-1-1-1-1-1-1-1-1-|--3--3--3-3---3-3---3-3---3-3--|
----------------------------------|-------------------------------|


  E  E  S S S S S S S S S S E     S S S S S S S S S S S S S S S S  
-------------------------------|----------------------------------|
-------------------------------|----------------------------------|
-------------------------------|----------------------------------|
-------------------------------|----------------------------------|
--3--3--3-3---3-3---3-3---3-3--|--1-1-1-1-1-1-1-1-1-1-1-1-1-1-1-1-|
-------------------------------|----------------------------------|


  S S S S S S S S S S S S S S S S    E  E  S S S S S S S S S S E   
----------------------------------|-------------------------------|
----------------------------------|-------------------------------|
----------------------------------|-------------------------------|
----------------------------------|-------------------------------|
--1-1-1-1-1-1-1-1-1-1-1-1-1-1-1-1-|-------------------------------|
----------------------------------|--0--0--0-0---0-0---0-0---0-0--|


  E  E  S S S S S S S S S S E     E  E  E  E  E  E  E  E   
-------------------------------|--------------------------|
-------------------------------|--------------------------|
-------------------------------|--------------------------|
-------------------------------|--------------------------|
-------------------------------|--3--3--3--3--3--3--3--3--|
--0--0--0-0---0-0---0-0---0-0--|--------------------------|


  E  E  E  E  E  E  E  E     E  E  E  E  E  E  E  E   
--------------------------|--------------------------|
--------------------------|--------------------------|
--------------------------|--------------------------|
-----0--0--2--2-----------|--------------------------|
--3--------------3--3--3--|--4--4--4--4--4--4--4--4--|
--------------------------|--------------------------|



                             (2.33) Back to verse

  E  E  E  E  E  E  E  E     E  E  E  E  E  E  E  E   
--------------------------|--------------------------|
--------------------------|--------------------------|
--------------------------|--------------------------|
--------------------------|--------------------------|
--4--4--4--4--4--4--4--4--|--0--0--0--0--0--0--0--0--|
--------------------------|--------------------------|



  E  E  E  E  E  E  E  E     E  E  E  E  E  E  E  E   
--------------------------|--------------------------|
--------------------------|--------------------------|
--------------------------|--------------------------|
--5--5--5--5--5--5--5--5--|--4--4--4--4--4--4--4--4--|
--------------------------|--------------------------|
--------------------------|--------------------------|


                             (2.41) Verse 3


  E  E  E  E  E  E  E  E     E  E  E  E  E  E  E  E   
--------------------------|--------------------------|
--------------------------|--------------------------|
--------------------------|--------------------------|
--3--3--3--3--3--2--------|--------------------------|
--------------------3--2--|--0--0--0--0--0--0--0--0--|
--------------------------|--------------------------|


  E  E  E  E  E  E  E  E     E  E  E  E  E  E  E  E   
--------------------------|--------------------------|
--------------------------|--------------------------|
--------------------------|--------------------------|
-----------------------2--|--0--0--0--0--0--0--0--0--|
--0--0--0--0--0--2--3-----|--------------------------|
--------------------------|--------------------------|


  E  E  E  E  E  E  E  E     E  E  E  E  E  E  E  E   
--------------------------|--------------------------|
--------------------------|--------------------------|
--------------------------|--------------------------|
--0--0--0--0--0-----0--2--|--3--3--3--3--3--3--3--3--|
-----------------3--------|--------------------------|
--------------------------|--------------------------|


  E  E  E  E  E  E  E  E     E  E  E  E  E  E  E  E   
--------------------------|--------------------------|
--------------------------|--------------------------|
--------------------------|--------------------------|
--3--3--3--3--3--3--3--3--|--5--5--5--5--5--5--5--5--|
--------------------------|--------------------------|
--------------------------|--------------------------|


  E  E  E  E  E  E  E  E     E  E  E  E  E  E  E  E   
--------------------------|--------------------------|
--------------------------|--------------------------|
--------------------------|--------------------------|
--5--2--2--0--0-----------|--------------------------|
-----------------3--2-----|--0--0--0--0--0--0--0--0--|
-----------------------3--|--------------------------|


  E  E  E  E  E  E  E  E     E  E  E  E  E  E  E  E   
--------------------------|--------------------------|
--------------------------|--------------------------|
--------------------------|--------------------------|
-----------------------2--|--0--0--0--0--0--0--0--0--|
--0--0--0--0--0--2--3-----|--------------------------|
--------------------------|--------------------------|


  E  E  E  E  E  E  E  E     E  E  E  E  E  E  E  E   
--------------------------|--------------------------|
--------------------------|--------------------------|
--------------------------|--------------------------|
--0--0--0--0--0-----0--2--|--3--3--3--3--3--3--3--3--|
-----------------3--------|--------------------------|
--------------------------|--------------------------|


  E  E  E  E  E  E  E  E     E  E  E  E  E  E  E  E   
--------------------------|--------------------------|
--------------------------|--------------------------|
--------------------------|--------------------------|
--3--3--3--3--3--2--------|--------------------------|
--------------------3--0--|--1--1--1--1--1--1--1--1--|
--------------------------|--------------------------|


                           (3.13) Prechorus 3

  E  E  E  E  E  E  E  E     E  E  Q    Q.     E     H.           E  E   
--------------------------|-----------------------|---------------------|
--------------------------|-----------------------|---------------------|
--------------------------|-----------------------|---------------------|
--------------------0-----|--------------------5--|--L------------L--x--|
--1--1--1--1--1--3-----1--|--0--0--0--------------|---------------------|
--------------------------|-----------------------|---------------------|


  E  E  Q    Q.     E     E  E  E  E  E  E  E  E     E  E  E  E  E  E  E  E   
-----------------------|--------------------------|--------------------------|
-----------------------|--------------------------|--------------------------|
-----------------------|--------------------------|--------------------------|
-----------------------|--------------------------|--------------------------|
--5--5--5--------------|--------------------------|--------------0--0--0--0--|
--------------------0--|-----0-----3-----3-----3--|--1--1--1--1--------------|


                            (3.25) Chorus 2

  E  E  E  E  E  E  E  E     S S S S S S S S S S S S S S S S  
--------------------------|----------------------------------|
--------------------------|----------------------------------|
--------------------------|----------------------------------|
--------------0--0--0--0--|----------------------------------|
--2--2--2--2--------------|--1-1-1-1-1-1-1-1-1-1-1-1-1-1-1-1-|
--------------------------|----------------------------------|


  S S S S S S S S S S S S S S S S    E  E  S S S S S S S S S S E   
----------------------------------|-------------------------------|
----------------------------------|-------------------------------|
----------------------------------|-------------------------------|
----------------------------------|-------------------------------|
--1-1-1-1-1-1-1-1-1-1-1-1-1-1-1-1-|-------------------------------|
----------------------------------|--0--0--0-0---0-0---0-0---0-0--|


  E  E  S S S S S S S S S S E     S S S S S S S S S S S S S S S S  
-------------------------------|----------------------------------|
-------------------------------|----------------------------------|
-------------------------------|----------------------------------|
-------------------------------|----------------------------------|
-------------------------------|--1-1-1-1-1-1-1-1-1-1-1-1-1-1-1-1-|
--0--0--0-0---0-0---0-0---0-0--|----------------------------------|


  S S S S S S S S S S S S S S S S    E  E  S S S S S S S S S S E   
----------------------------------|-------------------------------|
----------------------------------|-------------------------------|
----------------------------------|-------------------------------|
----------------------------------|-------------------------------|
--1-1-1-1-1-1-1-1-1-1-1-1-1-1-1-1-|--3--3--3-3---3-3---3-3---3-3--|
----------------------------------|-------------------------------|


  E  E  S S S S S S S S S S E     S S S S S S S S S S S S S S S S  
-------------------------------|----------------------------------|
-------------------------------|----------------------------------|
-------------------------------|----------------------------------|
-------------------------------|----------------------------------|
--3--3--3-3---3-3---3-3---3-3--|--1-1-1-1-1-1-1-1-1-1-1-1-1-1-1-1-|
-------------------------------|----------------------------------|


  S S S S S S S S S S S S S S S S    E  E  S S S S S S S S S S E   
----------------------------------|-------------------------------|
----------------------------------|-------------------------------|
----------------------------------|-------------------------------|
----------------------------------|-------------------------------|
--1-1-1-1-1-1-1-1-1-1-1-1-1-1-1-1-|-------------------------------|
----------------------------------|--0--0--0-0---0-0---0-0---0-0--|


  E  E  S S S S S S S S S S E     E  E  E  E  E  E  E  E   
-------------------------------|--------------------------|
-------------------------------|--------------------------|
-------------------------------|--------------------------|
-------------------------------|--------------------------|
-------------------------------|--3--3--3--3--3--3--3--3--|
--0--0--0-0---0-0---0-0---0-0--|--------------------------|


  E  E  E  E  E  E  E  E     E  E  E  E  E  E  E  E   
--------------------------|--------------------------|
--------------------------|--------------------------|
--------------------------|--------------------------|
-----0--0--2--2-----------|--------------------------|
--3--------------3--3--3--|--4--4--4--4--4--4--4--4--|
--------------------------|--------------------------|



                           (3.57) Bridge

  E  E  E  E  E  E  E  E     H.           E  S S    W                 
--------------------------|----------------------|-------------------|
--------------------------|----------------------|-------------------|
--------------------------|----------------------|-------------------|
--------------------------|------------------5-7-|--5----------------|
--4--4--4--4--4--4--4--4--|--0------------L------|-------------------|
--------------------------|----------------------|-------------------|


  W                   E.  E.  E  E.  E.  S S    H.           E  E   
-------------------|-------------------------|---------------------|
-------------------|-------------------------|---------------------|
-------------------|-------------------------|---------------------|
--4----------------|--3---2---0--2---0-------|---------------------|
-------------------|---------------------3-2-|--0------------L--7--|
-------------------|-------------------------|---------------------|


                                 |----3----|                |----3----|     
  Q.     Q.     Q       H        Q    Q    Q       H        Q    Q    Q     
---------------------|--------------------------|--------------------------|
---------------------|--------------------------|--------------------------|
---------4------5----|--4--------L--------------|--------------------------|
--7------------------|----------------7----5----|---------------------5----|
---------------------|--------------------------|--5--------L----7---------|
---------------------|--------------------------|--------------------------|


           |----3----|                 |----3----|     
  H        Q    Q    Q       Q.     E  Q    Q    Q     
--------------------------|---------------------------|
--------------------------|---------------------------|
----------------4----5----|--7------4--L--------------|
--7--------L--------------|-----------------5---------|
--------------------------|----------------------7----|
--------------------------|---------------------------|


             Harm.                                                  
             NH     NH                                              
  H          Q      Q       W                   H.           E  E   
-----------<>5-----------|--L----------------|---------------------|
------------------<>4----|--L----------------|---------------------|
-------------------------|-------------------|---------------------|
--7----------------------|-------------------|---------------------|
-------------------------|-------------------|--0------------L--7--|
-------------------------|-------------------|---------------------|


                                                       |----3----|     
  H        Q    Q       H.           E  E     H        Q    Q    Q     
---------------------|---------------------|--------------------------|
---------------------|---------------------|--------------------------|
-----------4----5----|--4------------L-----|-----------5----4---------|
--7------------------|------------------7--|--5------------------5----|
---------------------|---------------------|--------------------------|
---------------------|---------------------|--------------------------|



  H.           E  E     H         H           E  E  E  E  E  E  E  E   
---------------------|---------------------|--------------------------|
---------------------|---------------------|--------------------------|
------------------2--|--0------------------|--------------------------|
--3------------L-----|-----------/2--------|--------------------------|
---------------------|---------------------|--0--0--0--0--0--0--0--0--|
---------------------|---------------------|--------------------------|




                             (4.38) Guitar solo!

  E  E  E  E  E  E  E  E     S S S S S S S S S S S S S S S S  
--------------------------|----------------------------------|
--------------------------|----------------------------------|
--------------------------|----------------------------------|
--------------------------|----------------------------------|
--0--0--0--0--0--0--0--0--|--0---0-0-0---0-0-0---0-0-0---0-0-|
--------------------------|----------------------------------|


  S S S S S S S S S S S S S S S S    S S S S S S S S S S S S S S S S  
----------------------------------|----------------------------------|
----------------------------------|----------------------------------|
----------------------------------|----------------------------------|
----------------------------------|----------------------------------|
--0---0-0-0---0-0-0---0-0-0---0-0-|----------------------------------|
----------------------------------|--3---3-3-3---3-3-3---3-3-3---3-3-|


  S S S S S S S S S S S S S S S S    S S S S S S S S S S S S S S S S  
----------------------------------|----------------------------------|
----------------------------------|----------------------------------|
----------------------------------|----------------------------------|
----------------------------------|----------------------------------|
----------------------------------|--3---3-3-3---3-3-3---3-3-3---3-3-|
--3---3-3-3---3-3-3---3-3-3---3-3-|----------------------------------|


  S S S S S S S S S S S S S S S S    S S S S S S S S S S S S S S S S  
----------------------------------|----------------------------------|
----------------------------------|----------------------------------|
----------------------------------|----------------------------------|
----------------------------------|--3---3-3-3---3-3-3---3-3-3---3-3-|
--3---3-3-3---3-3-3---3-3-3---3-3-|----------------------------------|
----------------------------------|----------------------------------|


                                   .

  S S S S S S S S S S S S S S S S    S S S S S S S S S S S S S S S S  
----------------------------------|----------------------------------|
----------------------------------|----------------------------------|
----------------------------------|----------------------------------|
--5---5-5-5---5-5-5---5-5-5---5-5-|----------------------------------|
----------------------------------|--0---0-0-0---0-0-0---0-0-0---0-0-|
----------------------------------|----------------------------------|


  S S S S S S S S S S S S S S S S    S S S S S S S S S S S S S S S S  
----------------------------------|----------------------------------|
----------------------------------|----------------------------------|
----------------------------------|----------------------------------|
----------------------------------|----------------------------------|
--0---0-0-0---0-0-0---0-0-0---0-0-|----------------------------------|
----------------------------------|--3---3-3-3---3-3-3---3-3-3---3-3-|


  S S S S S S S S S S S S S S S S    S S S S S S S S S S S S S S S S  
----------------------------------|----------------------------------|
----------------------------------|----------------------------------|
----------------------------------|----------------------------------|
----------------------------------|----------------------------------|
----------------------------------|--3---3-3-3---3-3-3---3-3-3---3-3-|
--3---3-3-3---3-3-3---3-3-3---3-3-|----------------------------------|


  S S S S S S S S S S S S S S S S    E  E  E  E  E  E  E  E   
----------------------------------|--------------------------|
----------------------------------|--------------------------|
----------------------------------|--------------------------|
----------------------------------|--3--3--3--3--3--3--3--3--|
--3---3-3-3---3-3-3---3-3-3---3-3-|--------------------------|
----------------------------------|--------------------------|

                            (5.09) Chorus 3


  E  E  E  E  E  E  E  E     S S S S S S S S S S S S S S S S  
--------------------------|----------------------------------|
--------------------------|----------------------------------|
--------------------------|----------------------------------|
--5--5--5--5--5--5--5--5--|----------------------------------|
--------------------------|--1-1-1-1-1-1-1-1-1-1-1-1-1-1-1-1-|
--------------------------|----------------------------------|


  S S S S S S S S S S S S S S S S    E  E  S S S S S S S S S S E   
----------------------------------|-------------------------------|
----------------------------------|-------------------------------|
----------------------------------|-------------------------------|
----------------------------------|-------------------------------|
--1-1-1-1-1-1-1-1-1-1-1-1-1-1-1-1-|-------------------------------|
----------------------------------|--0--0--0-0---0-0---0-0---0-0--|


  E  E  S S S S S S S S S S E     S S S S S S S S S S S S S S S S  
-------------------------------|----------------------------------|
-------------------------------|----------------------------------|
-------------------------------|----------------------------------|
-------------------------------|----------------------------------|
-------------------------------|--1-1-1-1-1-1-1-1-1-1-1-1-1-1-1-1-|
--0--0--0-0---0-0---0-0---0-0--|----------------------------------|


  S S S S S S S S S S S S S S S S    E  E  S S S S S S S S S S E   
----------------------------------|-------------------------------|
----------------------------------|-------------------------------|
----------------------------------|-------------------------------|
----------------------------------|-------------------------------|
--1-1-1-1-1-1-1-1-1-1-1-1-1-1-1-1-|--3--3--3-3---3-3---3-3---3-3--|
----------------------------------|-------------------------------|


  E  E  S S S S S S S S S S E     S S S S S S S S S S S S S S S S  
-------------------------------|----------------------------------|
-------------------------------|----------------------------------|
-------------------------------|----------------------------------|
-------------------------------|----------------------------------|
--3--3--3-3---3-3---3-3---3-3--|--1-1-1-1-1-1-1-1-1-1-1-1-1-1-1-1-|
-------------------------------|----------------------------------|


  S S S S S S S S S S S S S S S S    E  E  S S S S S S S S S S E   
----------------------------------|-------------------------------|
----------------------------------|-------------------------------|
----------------------------------|-------------------------------|
----------------------------------|-------------------------------|
--1-1-1-1-1-1-1-1-1-1-1-1-1-1-1-1-|--0--0--0-0---0-0---0-0---0-0--|
----------------------------------|-------------------------------|


  E  E  S S S S S S S S S S E     E  E  E  E  E  E  E  E   
-------------------------------|--------------------------|
-------------------------------|--------------------------|
-------------------------------|--------------------------|
-------------------------------|--------------------------|
--0--0--0-0---0-0---0-0---0-0--|--3--3--3--3--3--3--3--3--|
-------------------------------|--------------------------|


  E  E  E  E  E  E  E  E     E  E  E  E  E  E  E  E   
--------------------------|--------------------------|
--------------------------|--------------------------|
--------------------------|--------------------------|
-----0--0--2--2-----------|--------------------------|
--3--------------3--3--3--|--4--4--4--4--4--4--4--4--|
--------------------------|--------------------------|


                          (5.40) Outro [WAAAAAAAAAAAAAAAAAAAH!]


  E  E  E  E  E  E  E  E       S S S S E  S S S E.  S S S S  
--------------------------||--------------------------------|
--------------------------||--------------------------------|
--------------------------||*-------------------------------|
--------------------------||*----------7------------------3-|
--4--4--4--4--4--4--4--4--||---0-0-0-0----0-0-0-3---0-0-0---|
--------------------------||--------------------------------|


  Q.     S S S S S S S S S S  3x  S S S S E  S S S E.  S S S  S  
------------------------------||--------------------------------|
------------------------------||--------------------------------|
-----------------------------*||--------------------------------|
--L------L-2-3-5-3-2-3-2-----*||----------7--------9---------10-|
-------------------------3-2--||--0-0-0-0----0-0-0-----0-0-0----|
------------------------------||--------------------------------|


  H.           E  S S     S S S  S S S  S S S S  S S S  S S  S  
----------------------|----------------------------------------|
----------------------|------------7------7-9-7----------------|
------------------7-9-|--10-7-9-10---9-10-------10-9-7---------|
--L------------L------|--------------------------------10-9-10-|
----------------------|----------------------------------------|
----------------------|----------------------------------------|


  S S E  H.             
----------------------||
----------------------||
----------------------||
--7-7-----------------||
----------------------||
----------------------||











                                      3. ...OF EPIC QUESTIONS





(0.12) Intro

     H        E  E  Q       W                   W                 
C||----------------------|-------------------|-------------------|
G||----------------------|-------------------|-------------------|
D||----------------------|-------------------|-------------------|
A||----------------------|-------------------|-------------------|
E||----------------------|-------------------|-------------------|
B||--1--------1--1--1----|-------------------|-------------------|



                              |-3-| |----3----|                         
  H        H           Q.     S S S Q    Q    Q       W                 
--------------------|------------------------------|-------------------|
--------------------|------------------------------|-------------------|
--------------------|------------------------------|-------------------|
--------------------|------------------------------|-------------------|
--------------------|------------------------------|-------------------|
--4--------0--------|--1------1-1-1-1----1----1----|--3----------------|



  W                   W                   S S E  E  E  E  E  E  E   
-------------------|-------------------|---------------------------|
-------------------|-------------------|---------------------------|
-------------------|-------------------|---------------------------|
-------------------|-------------------|---------------------------|
-------------------|--2----------------|---------------------------|
--4----------------|-------------------|--3-3-3--3--3--3--3--3--3--|


  S S E  E  E  E  E  E  E     S S E  E  E  E  E  E  E   
---------------------------|---------------------------|
---------------------------|---------------------------|
---------------------------|---------------------------|
---------------------------|---------------------------|
---------------------------|---------------------------|
--3-3-3--3--3--3--3--3--3--|--3-3-3--3--3--3--3--3--3--|


  S S E  E  E  E  E  E  E     S S E  E  E  E  E  E  E   
---------------------------|---------------------------|
---------------------------|---------------------------|
---------------------------|---------------------------|
---------------------------|---------------------------|
--1-1-1--1--1--------------|---------------------------|
---------------2--2--2--2--|--3-3-3--3--3--3--3--3--3--|


  S S E  E  E  E  E  E  E     S S E  E  E  E  E  E  E   
---------------------------|---------------------------|
---------------------------|---------------------------|
---------------------------|---------------------------|
---------------------------|---------------------------|
--0-0-0--0--0--0--0--0--0--|--1-1-1--1--1--1--1--1--1--|
---------------------------|---------------------------|


                              (0.38)
  S S E  E  E  E  E  Q        S S E  E  E  E  E  E  E   
---------------------------|---------------------------|
---------------------------|---------------------------|
---------------------------|---------------------------|
---------------------------|---------------------------|
--1-1-1--1--1--1--1--1\----|---------------------------|
---------------------------|--1-1-1--1--1--1--1--1--1--|


  S S E  E  E  E  E  E  E     S S E  E  E  E  E  E  E   
---------------------------|---------------------------|
---------------------------|---------------------------|
---------------------------|---------------------------|
---------------------------|---------------------------|
--2-2-2--2--2--2--2--2--2--|---------------------------|
---------------------------|--1-1-1--1--1--1--1--1--1--|


  E  E  E  E  E  E  E  E     S S E  E  E  E  E  E  E   
--------------------------|---------------------------|
--------------------------|---------------------------|
--------------------------|---------------------------|
--------------------------|---------------------------|
--------------------------|---------------------------|
--4--4--4--4--0--0--0--0--|--1-1-1--1--1--1--1--1--1--|


  S S E  E  E  E  E  E  E     S S E  E  E  E  E  E  E     W                 
---------------------------|---------------------------|-------------------|
---------------------------|---------------------------|-------------------|
---------------------------|---------------------------|-------------------|
---------------------------|---------------------------|-------------------|
---------------------------|---------------------------|--2----------------|
--3-3-3--3--3--3--3--3--3--|--4-4-4--4--4--4--4--4--4--|-------------------|


(0.50) Chug

  E  E  E  S S E  E  E  S S    E  E  E  S S E  E  E  S S  
----------------------------|----------------------------|
----------------------------|----------------------------|
----------------------------|----------------------------|
----------------------------|----------------------------|
----------------------------|----------------------------|
--0--5-----5-5-5--3-----3-3-|--3--1-----1-1-1--0-----0-0-|


  E  E  E  S S E  E  E  S S    E  E  E  S S E  E  Q     
----------------------------|--------------------------|
----------------------------|--------------------------|
----------------------------|--------------------------|
----------------------------|--------------------------|
----------------------------|-----1-----1-1-1----------|
--0--5-----5-5-5--3-----3-3-|--3---------------3-------|


  E  E  E  E  E  E  E  E     E  E  E  E  E  E  E  E   
--------------------------|--------------------------|
--------------------------|--------------------------|
--------------------------|--------------------------|
--------------------------|--------------------------|
--------------------------|--------------------------|
--0--5--5--5--5--3--3--3--|--3--1--1--1--1--0--0--0--|


                                                     (1.03) Verse 1

  E  E  E  E  E  E  E  E     E  E  E  E  E  E  Q       E  E  E  E  E  E  E  E   
--------------------------|-------------------------|--------------------------|
--------------------------|-------------------------|--------------------------|
--------------------------|-------------------------|--------------------------|
--------------------------|-------------------------|--------------------------|
--------------------------|-----1--1--1--1----------|--2--------2--------2-----|
--L--5--5--5--5--3--3--3--|--3--------------3--3----|--------------------------|


  E  S S E  E  E  E  E  E     S S E  E  E  E  E  E  E   
---------------------------|---------------------------|
---------------------------|---------------------------|
---------------------------|---------------------------|
---------------------------|---------------------------|
-----2-2-0--2--4--5--4--0--|--2-2-2--2--2--2--2--2--0--|
---------------------------|---------------------------|


  E  E  E  E  E  E  E  E     E  E  E  E  E  E  E  E   
--------------------------|--------------------------|
--------------------------|--------------------------|
--------------------------|--------------------------|
-----------------------2--|--4--4--4--4--4--4--4--4--|
--L--0--0--3--L--3--3-----|--------------------------|
--------------------------|--------------------------|


  E  E  E  E  E  E  E  E     E  E  E  E  E  E  E  E   
--------------------------|--------------------------|
--------------------------|--------------------------|
--------------------------|--------------------------|
--2--2--2--2--2--4--2-----|--------------------------|
-----------------------4--|--0--0--0--0--0--2--4--0--|
--------------------------|--------------------------|


  E  E  E  E  E  E  E  E     E.  S E  E  E.  S E  E   
--------------------------|--------------------------|
--------------------------|--------------------------|
--------------------------|--------------------------|
--0--0--0--0--0--2--4--0--|--------------------------|
--------------------------|--4---4-4--4--4---4-4--4--|
--------------------------|--------------------------|


  E.  S E  E  E  E  E  E     E.  S E  E  E.  S E  E   
--------------------------|--------------------------|
--------------------------|--------------------------|
--------------------------|--------------------------|
-----------------------3--|--------------------------|
--4---4-4--4--4--4--5-----|--4---4-4--4--4---4-4--4--|
--------------------------|--------------------------|

                 
  E  E  E  E  E  E  E  E     E  E  E  E  E  E  E  E   
--------------------------|--------------------------|
--------------------------|--------------------------|
--------------------------|--------------------------|
--------------------------|--------------4-----------|
--4--2-----2--L--4--2--0--|--------------------------|
--------------------------|--2--2--2--2-----2--2--2--|


  E  E  E  E  E  E  E  E     E  E  E  E  E  E  E  E   
--------------------------|--------------------------|
--------------------------|--------------------------|
--------------------------|--------------------------|
--------------6-----------|-----------------------2--|
--------------------------|--0--0--0--0--0--2--4-----|
--4--4--4--4-----4--4--4--|--------------------------|

                              (1.27) Pre-Chorus 1
  
  E  E  E  E  E  E  E  E     E  E  E  E  E  E  E  E  E  E  E  E  E  E   
--------------------------|--------------------------------------------|
--------------------------|--------------------------------------------|
--------------2--1--------|--------------------------------------------|
--0--0--0--0--------4--0--|--------------------------------------------|
--------------------------|--4--4--------4--4-----4--4--------4--4--2--|
--------------------------|--------------------------------------------|


  E  E  E  E  E  E  E  E  E  E  E  E  E  E   
--------------------------------------------|
--------------------------------------------|
--------------------------------------------|
--------------------------------------------|
--0--0--------0--0-----0--0--------0--0-----|
--------------------------------------------|


  E  E  E  E  E  E  E  E  E  E  E  E  E  E   
--------------------------------------------|
--------------------------------------------|
--------------------------------------------|
--------------------------------------------|
--3--3--------3--3-----3--3--------3--3-----|
--------------------------------------------|

                                         (1.38) Chorus 1

  E  E  E  E  E  E  E  E  E  E  E  E     E  E  E  E  E  E  E  E  E  E  E  E   
--------------------------------------|--------------------------------------|
--------------------------------------|--------------------------------------|
--------------------------------------|--------------------------------------|
--------3--4--6--4--3--4--6--7--6--4--|--------------------------------------|
--4--5--------------------------------|--------------------------------------|
--------------------------------------|--3--3--3--3--3--3--3--3--3--3--3--3--|


  E  E  E  E  E  E  E  E  E  E  E  E     E  E  E  E  E  E  E  E  E  E  E  E   
--------------------------------------|--------------------------------------|
--------------------------------------|--------------------------------------|
--------------------------------------|--------------------------------------|
--------------------------------------|--------------------------------------|
--------------------1--1--1-----------|--------------------------------1--3--|
--3--3--3--3--3--3-----------2--2--2--|--3--3--3--3--3--3--5--5--5--5--------|


  E  E  E  E  E  E  E  E  E  E  E  E     E  E  E  E  E  E  E  E  E  E  E  E   
--------------------------------------|--------------------------------------|
--------------------------------------|--------------------------------------|
--------------------------------------|--------------------------------------|
--------------------------------------|--------------------------------------|
--1--1--1--1--1--1--1--1--1--1--1--1--|--------------------2--2--2--2--2--2--|
--------------------------------------|--1--1--1--1--1--1--------------------|


  E  E  E  E  E  E  E  E  E  E  E  E     E  E  E  E  E  E  E  E  E  E  E  E   
--------------------------------------|--------------------------------------|
--------------------------------------|--------------------------------------|
--------------------------------------|--------------------------------------|
--------------------------------------|--------------------------------------|
--------------------------------------|--------------------------------------|
--1--1--1--1--1--1--4--4--4--0--0--0--|--1--1--1--1--1--1--3--3--3--3--3--3--|

                                          (1.58) Verse 2

  E  E  E  E  E  E  E  E  E  E  E  E     E  E  E  E  E  E  E  E   
--------------------------------------|--------------------------|
--------------------------------------|--------------------------|
--------------------------------------|--------------------------|
--------------------------------------|--------------------------|
--------------------2--2--2--2--2--2--|--------------------------|
--4--4--4--4--4--4--------------------|--0--------0--------0-----|


            |----3----|                                                       
  Q    Q    Q    Q    Q       Q.     Q.     Q       E  S S E  E  E  E  E  E   
---------------------------|---------------------|---------------------------|
---------------------------|---------------------|---------------------------|
---------------------------|---------------------|---------------------------|
---------------------------|---------------------|-----0-0-2--4--5--4--2--0--|
---------------------------|--3-------------5----|--L------------------------|
-------0----0----0----0----|---------3-----------|---------------------------|


                                       |----3----|                           
  E  E  E  E  E  E  E  E     Q    Q    Q    Q    Q       Q.     Q.     Q     
--------------------------|---------------------------|---------------------|
--------------------------|---------------------------|---------------------|
--------------------------|---------------------------|---------------------|
--------------------------|---------------------------|---------------------|
--------------------------|---------------------------|--3-------------5----|
--0--------0--------0-----|-------0----0----0----0----|---------3-----------|



  E  S S E  E  E  E  E  E     E  E  E  E  E  E  E  E   
---------------------------|--------------------------|
---------------------------|--------------------------|
---------------4-----------|--------------------------|
-----0-0-5--7-----7--5--4--|--------------------------|
--L------------------------|--2--------2--------2-----|
---------------------------|--------------------------|


  E  S S E  E  E  E  E  E     S S E  E  E  E  E  E  E   
---------------------------|---------------------------|
---------------------------|---------------------------|
---------------------------|---------------------------|
---------------------------|---------------------------|
-----2-2-0--2--4--5--4--0--|--2-2-2--2--2--2--2--2--0--|
---------------------------|---------------------------|


  E  E  E  E  E  E  E  E     E  E  E  E  E  E  E  E   
--------------------------|--------------------------|
--------------------------|--------------------------|
--------------------------|--------------------------|
--------------------------|--------------------------|
--L--0--0--3--L--3--3--3--|--2--------2--------2-----|
--------------------------|--------------------------|


  E  S S E  E  E  E  E  E     S S E  E  E  E  E  E  E   
---------------------------|---------------------------|
---------------------------|---------------------------|
---------------------------|---------------------------|
---------------------------|---------------------------|
-----2-2-0--2--4--5--4--0--|--2-2-2--2--2--2--2--2--0--|
---------------------------|---------------------------|

                            (2.29)

  E  E  E  E  E  E  E  E     E  E  E  E  E  E  E  E   
--------------------------|--------------------------|
--------------------------|--------------------------|
--------------------------|--------------------------|
-----------------------2--|--4--4--4--4--4--4--6--4--|
--L--0--0--3--L--3--3-----|--------------------------|
--------------------------|--------------------------|


  E  E  E  E  E  E  E  E     E  E  E  E  E  E  E  E   
--------------------------|--------------------------|
--------------------------|--------------------------|
--------------------------|--------------------------|
--2--2--2--2--2--4--2-----|-----------------------2--|
-----------------------4--|--0--0--0--0--0--2--4-----|
--------------------------|--------------------------|


  E  E  E  E  E  E  E  E     E.  S E  E  E.  S E  E   
--------------------------|--------------------------|
--------------------------|--------------------------|
--------------------------|--------------------------|
--0--0--0--0--0--2--4--0--|--------------------------|
--------------------------|--4---4-4--4--4---4-4--4--|
--------------------------|--------------------------|


  E.  S E  E  E  E  E  E     E.  S E  E  E.  S E  E   
--------------------------|--------------------------|
--------------------------|--------------------------|
--------------------------|--------------------------|
-----------------------3--|--------------------------|
--4---4-4--4--4--4--5-----|--4---4-4--4--4---4-4--4--|
--------------------------|--------------------------|


  E  E  E  E  E  E  E  E     E  E  E  E  E  E  E  E   
--------------------------|--------------------------|
--------------------------|--------------------------|
--------------------------|--------------------------|
--------------------------|--------------------------|
--4--2-----2--L--4--2--0--|--------------------------|
--------------------------|--2--2--2--2--2--2--2--2--|


  E  E  E  E  E  E  E  E     E  E  E  E  E  E  E  E   
--------------------------|--------------------------|
--------------------------|--------------------------|
--------------------------|--------------------------|
--------------------------|--------------------2-----|
--------------------------|--0--0--0--0--2--4-----4--|
--4--4--4--4--4--4--4--4--|--------------------------|


                            (2.41) Pre-chorus 2

  E  E  E  E  E  E  E  E     E  E  E  E  E  E  E  E  E  E  E  E  E  E   
--------------------------|--------------------------------------------|
--------------------------|--------------------------------------------|
--------------2--1--------|--------------------------------------------|
--0--2--0--0--------4--0--|--------------------------------------------|
--------------------------|--4--4--------4--4-----4--4--------4--4--2--|
--------------------------|--------------------------------------------|


  E  E  E  E  E  E  E  E  E  E  E  E  E  E   
--------------------------------------------|
--------------------------------------------|
--------------------------------------------|
--------------------------------------------|
--0--0--------0--0-----0--0--------0--0--2--|
--------------------------------------------|


  E  E  E  E  E  E  E  E  E  E  E  E  E  E   
--------------------------------------------|
--------------------------------------------|
--------------------------------------------|
--------------------------------------------|
--3--3--------3--3-----3--3--------3--3--3--|
--------------------------------------------|


  E  E  E  E  E  E  E  E  E  E  E  E  E  E   
--------------------------------------------|
--------------------------------------------|
--------6-----4--6--7--6--4-----------------|
-----------------------------7--6--4--3-----|
--4--4-----4-----------------------------5--|
--------------------------------------------|


  E  E  E  E  E  E  E  E  E  E  E  E  E  E   
--------------------------------------------|
--------------------------------------------|
--------------------------------------------|
--------------------------------------------|
--4--4--4--4--4--4--2--4--4--4--4--4--4--2--|
--------------------------------------------|


  E  E  E  E  E  E  E  E  E  E  E  E  E  E   
--------------------------------------------|
--------------------------------------------|
--------------------------------------------|
--------------------------------------------|
--0--0--0--0--0--0--0--0--0--0--0--0--0--2--|
--------------------------------------------|


  E  E  E  E  E  E  E  E  E  E  E  E  E  E   
--------------------------------------------|
--------------------------------------------|
--------------------------------------------|
--------------------------------------------|
--3--3--3--3--3--3--5--3--3--3--3--3--3--3--|
--------------------------------------------|

                                       (3.03) Chorus 2

  E  E  E  E  E  E  E  E  E  E  E  E     E  E  E  E  E  E  E  E  E  E  E  E   
--------------------------------------|--------------------------------------|
--------------------------------------|--------------------------------------|
--------------------------------------|--------------------------------------|
--------3--4--6--4--3--4--6--7--6--4--|--------------------------------------|
--4--5--------------------------------|--------------------------------------|
--------------------------------------|--3--3--3--3--3--3--3--3--3--3--3--3--|


  E  E  E  E  E  E  E  E  E  E  E  E     E  E  E  E  E  E  E  E  E  E  E  E   
--------------------------------------|--------------------------------------|
--------------------------------------|--------------------------------------|
--------------------------------------|--------------------------------------|
--------------------------------------|--------------------------------------|
--------------------1--1--1-----------|--------------------------------1--3--|
--3--3--3--3--3--3-----------2--2--2--|--3--3--3--3--3--3--5--5--5--5--------|


  E  E  E  E  E  E  E  E  E  E  E  E     E  E  E  E  E  E  E  E  E  E  E  E   
--------------------------------------|--------------------------------------|
--------------------------------------|--------------------------------------|
--------------------------------------|--------------------------------------|
--------------------------------------|--------------------------------------|
--1--1--1--1--1--1--1--1--1--1--1--1--|--------------------2--2--2--2--2--2--|
--------------------------------------|--1--1--1--1--1--1--------------------|


  E  E  E  E  E  E  E  E  E  E  E  E     E  E  E  E  E  E  E  E  E  E  E  E   
--------------------------------------|--------------------------------------|
--------------------------------------|--------------------------------------|
--------------------------------------|--------------------------------------|
--------------------------------------|--------------------------------------|
--------------------------------------|--------------------------------------|
--1--1--1--1--1--1--4--4--4--0--0--0--|--1--1--1--1--1--1--3--3--3--3--3--3--|

                                       (3.23) Bridge

  E  E  E  E  E  E  E  E  E  E  E  E     E  E  E  E  E  E  E  E  E  E  E  E   
--------------------------------------|--------------------------------------|
--------------------------------------|--------------------------------------|
--------------------------------------|--------------------------------------|
--------------------------------------|--------------------------------------|
--------------------2--2--2--2--2--2--|--------------------------------------|
--4--4--4--4--4--4--------------------|-----0--0-----0--0--2--2-----2--2-----|


  E  E  E  E  E  E     Q    Q        E   E   E   E   E  E   E   E   
--------------------|------------|---------------------------------|
--------------------|------------|---------------------------------|
--------------------|------------|---------------------------------|
--------------------|------------|---------------------------------|
--------------------|------------|--12--12--12--12--12-----10--12--|
-----3--3-----3--3--|--4----4----|----------------------0----------|


   E   E   E   E   E  E   E  E      E   E   E   E   E  E   E   E   
--------------------------------|---------------------------------|
--------------------------------|---------------------------------|
--------------------------------|---------------------------------|
--------------------------------|---------------------------------|
---L--12--12--12--12-----10-----|--12--12--12--12--12-----10--12--|
----------------------0------0--|----------------------0----------|


   E   E   E   E   E   E  E  E     E  E  E  E  E  E  E  E   
--------------------------------|--------------------------|
--------------------------------|--------------------------|
--------------------------------|--------------------------|
--------------------------------|-----------------------4--|
---L--12--12--12--12--10--7--5--|--3--3--3--3--3--3--3-----|
--------------------------------|--------------------------|


  E  E  E  E  E  E  E  E     E  E  E  E  E  E  E  E   
--------------------------|--------------------------|
--------------------------|--------------------------|
--------------------------|--------------------------|
--L--4--4--4--4--5--4--2--|-----------------0--2-----|
--------------------------|--3--3--3--3--3--------3--|
--------------------------|--------------------------|

                            (3.42)                          
 
  E  E  E  E  E  E  E  E     E  E  E  E  E  E  E  E   
--------------------------|--------------------------|
--------------------------|--------------------------|
--------------------------|--------------------------|
--------------------------|--------------------------|
--5--5--5--5--5--5--5--3--|--------------------------|
--------------------------|--5--5--5--5--5--0--3--5--|


  E  E  E  E  E  E  E  E     E  E  E  E  E  E  E  E   
--------------------------|--------------------------|
--------------------------|--------------------------|
--------------------------|--------------------------|
--------------------------|--------------------------|
--------------------------|--------------------------|
--L--5--5--5--5--0--3--0--|--5--5--5--5--5--0--3--5--|


  E  E  E  E  E  E  E  E     E  E  E  E  E  E  E  E   
--------------------------|--------------------------|
--------------------------|--------------------------|
--------------------------|--------------------------|
--------------------------|-----------------------4--|
--------------------------|--3--3--3--3--3--3--3-----|
--L--5--5--5--5--0--3--5--|--------------------------|


  E  E  E  E  E  E  E  E     E  E  E  E  E  E  E  E   
--------------------------|--------------------------|
--------------------------|--------------------------|
--------------------------|--------------------------|
--L--4--4--4--4--5--4--2--|-----------------0--2-----|
--------------------------|--3--3--3--3--3--------3--|
--------------------------|--------------------------|

                             (3.55)

  E  E  E  E  E  E  E  E     S S E  Q    H           S S E  Q    H         
--------------------------|-----------------------|-----------------------|
--------------------------|-----------------------|-----------------------|
--------------------------|--2-2-2----------------|--0-0-0----------------|
-----5-----4--0-----------|-----------------------|-----------------------|
--3-----3--------3--2-----|-----------------------|-----------------------|
-----------------------3--|-----------------------|-----------------------|


  S S E  Q    H           S S S S S S S S S S S S S S E   
-----------------------|---------------------------------|
-----------------------|---------------------------------|
-----------------------|----0-2---0-2---0-2---0-2---0-2--|
--3-3-3----------------|--2-----2-----2-----2-----2------|
-----------------------|---------------------------------|
-----------------------|---------------------------------|


  S S E  Q    H           S S E  Q    H           S S E  Q    H         
-----------------------|-----------------------|-----------------------|
-----------------------|-----------------------|-----------------------|
--2-2-2----------------|--0-0-0----------------|-----------------------|
-----------------------|-----------------------|--3-3-3----------------|
-----------------------|-----------------------|-----------------------|
-----------------------|-----------------------|-----------------------|


  |----3----|    |----3----|       |----3----|    |----3----|     
  Q    Q    Q    Q    Q    Q       Q    Q    Q    Q    Q    Q     
--------------------------------|--------------------------------|
--------------------------------|--------------------------------|
--------------------------------|--------------------------------|
--2----3----2----0--------------|-----------------0--------------|
----------------------3----2----|----------------------3----2----|
--------------------------------|--0----1----0-------------------|


(4.10) Verse 3

  E  E  E  E  E  E  E  E     Q    E  E  Q    E  E     E  E  E  E  E  E  E  E   
--------------------------|------------------------|--------------------------|
--------------------------|------------------------|--------------------------|
--------------------------|------------------------|--------------------------|
--------------------------|------------------------|--------------------------|
--------------------------|------------------------|--------------------------|
--0--------0--------0-----|-------0----------0-----|--0--------0--------0-----|


  Q    E  E  Q    E  E     E  E  E  E  E  E  E  E     E  E  E  E  Q    Q     
------------------------|--------------------------|------------------------|
------------------------|--------------------------|------------------------|
------------------------|--------------------------|------------------------|
------------------------|--------------------------|------------------------|
------------------------|--------------------------|------------------------|
-------0----------0-----|-----0--0-----0--0-----0--|--0-----0--0-------0----|


  E  E  E  E  E  E  E  E     E  E  E  E  S S S S S S S S  
--------------------------|------------------------------|
--------------------------|------------------------------|
--------------------------|------------------------------|
--------------------------|----------------------2-2-3-3-|
--------------------------|-----------0--2-2-3-3---------|
--1--------1--------1-----|--0--1--4---------------------|


(4.23)

  E  E  E  E  E  E  E  E     E  E  E  E  E  E  E  E   
--------------------------|--------------------------|
--------------------------|--------------------------|
--------------------------|--------------------------|
--4--4--4--4--4--4--6--4--|--2--2--2--2--2--4--2-----|
--------------------------|-----------------------4--|
--------------------------|--------------------------|


  E  E  E  E  E  E  E  E     E  E  E  E  E  E  E  E   
--------------------------|--------------------------|
--------------------------|--------------------------|
--------------------------|--------------------------|
-----------------------2--|--0--0--0--0--0--2--4--0--|
--0--0--0--0--0--2--4-----|--------------------------|
--------------------------|--------------------------|


  E.  S E  E  E.  S E  E     E.  S E  E  E  E  E  E   
--------------------------|--------------------------|
--------------------------|--------------------------|
--------------------------|--------------------------|
--------------------------|-----------------------3--|
--4---4-4--4--4---4-4--4--|--4---4-4--4--4--4--5-----|
--------------------------|--------------------------|


  E.  S E  E  E.  S E  E     E  E  E  E  E  E  E  E   
--------------------------|--------------------------|
--------------------------|--------------------------|
--------------------------|--------------------------|
--------------------------|--------------------------|
--4---4-4--4--4---4-4--4--|--4--2-----2--L--4--2--0--|
--------------------------|--------------------------|


  E  E  E  E  E  E  E  E     E  E  E  E  E  E  E  E   
--------------------------|--------------------------|
--------------------------|--------------------------|
--------------------------|--------------------------|
--------------4-----------|--------------6-----------|
--------------------------|--------------------------|
--2--2--2--2-----2--2--2--|--4--4--4--4-----4--4--4--|


  E  E  E  E  E  E  E  E     E  E  E  E  E  E  E  E   
--------------------------|--------------------------|
--------------------------|--------------------------|
--------------------------|--------------2--1--------|
--------------------2-----|--0--0--0--0--------4--0--|
--0--0--0--0--2--4-----4--|--------------------------|
--------------------------|--------------------------|

(4.42) Pre-Chorus 3

  E  E  E  E  E  E  E  E  E  E  E  E  E  E   
--------------------------------------------|
--------------------------------------------|
--------------------------------------------|
--------------------------------------------|
--4--4--------4--4-----4--4--------4--4--2--|
--------------------------------------------|


  E  E  E  E  E  E  E  E  E  E  E  E  E  E   
--------------------------------------------|
--------------------------------------------|
--------------------------------------------|
--------------------------------------------|
--0--0--------0--0-----0--0--------0--0--2--|
--------------------------------------------|


  E  E  E  E  E  E  E  E  E  E  E  E  E  E   
--------------------------------------------|
--------------------------------------------|
--------------------------------------------|
--------------------------------------------|
--3--3--------3--3-----3--3--------3--3--3--|
--------------------------------------------|


  E  E  E  E  E  E  E  E  E  E  E  E  E  E   
--------------------------------------------|
--------------------------------------------|
--------6-----4--6--7--6--4-----------------|
-----------------------------7--6--4--3-----|
--4--4-----4-----------------------------5--|
--------------------------------------------|


  E  E  E  E  E  E  E  E  E  E  E  E  E  E   
--------------------------------------------|
--------------------------------------------|
--------------------------------------------|
-----------------------------------2--------|
--4--4--4--4--4--4--2--4--4--4--4-----4--2--|
--------------------------------------------|


  E  E  E  E  E  E  E  E  E  E  E  E  E  E   
--------------------------------------------|
--------------------------------------------|
--------------------------------------------|
--------------------------------------------|
--0--0--0--0--0--0--0--0--0--0--0--0--0--2--|
--------------------------------------------|


  E  E  E  E  E  E  E  E  E  E  E  E  E  E   
--------------------------------------------|
--------------------------------------------|
--------------------------------------------|
--------------------------------------------|
--3--3--3--3--3--3--5--3--3--3--3--3--3--3--|
--------------------------------------------|

                                       (5.04) Chorus 3

  E  E  E  E  E  E  E  E  E  E  E  E     E  E  E  E  E  E  E  E  E  E  E  E   
--------------------------------------|--------------------------------------|
--------------------------------------|--------------------------------------|
--------------------------------------|--------------------------------------|
--------3--4--6--4--3--4--6--7--6--4--|--------------------------------------|
--4--5--------------------------------|--------------------------------------|
--------------------------------------|--3--3--3--3--3--3--3--3--3--3--3--3--|


  E  E  E  E  E  E  E  E  E  E  E  E     E  E  E  E  E  E  E  E  E  E  E  E   
--------------------------------------|--------------------------------------|
--------------------------------------|--------------------------------------|
--------------------------------------|--------------------------------------|
--------------------------------------|--------------------------------------|
--------------------1--1--1-----------|--------------------------------1--3--|
--3--3--3--3--3--3-----------2--2--2--|--3--3--3--3--3--3--5--5--5--5--------|


  E  E  E  E  E  E  E  E  E  E  E  E     E  E  E  E  E  E  E  E  E  E  E  E   
--------------------------------------|--------------------------------------|
--------------------------------------|--------------------------------------|
--------------------------------------|--------------------------------------|
--------------------------------------|--------------------------------------|
--1--1--1--1--1--1--1--1--1--1--1--1--|--------------------2--2--2--2--2--2--|
--------------------------------------|--1--1--1--1--1--1--------------------|


  E  E  E  E  E  E  E  E  E  E  E  E     E  E  E  E  E  E  E  E  E  E  E  E   
--------------------------------------|--------------------------------------|
--------------------------------------|--------------------------------------|
--------------------------------------|--------------------------------------|
--------------------------------------|--------------------------------------|
--------------------------------------|--------------------------------------|
--1--1--1--1--1--1--4--4--4--0--0--0--|--1--1--1--1--1--1--3--3--3--3--3--3--|

                                   (5.24) Outro

  E  E  E  E  E  E     E  E  E  E     S S E  E  E  E  E  E  E   
--------------------|--------------|---------------------------|
--------------------|--------------|---------------------------|
--------------------|--------------|---------------------------|
--------------------|--------------|---------------------------|
--------------------|--2--2--2--2--|---------------------------|
--4--4--4--4--4--4--|--------------|--3-3-3--3--3--3--3--3--3--|


  S S E  E  E  E  E  E  E     S S E  E  E  E  E  E  E   
---------------------------|---------------------------|
---------------------------|---------------------------|
---------------------------|---------------------------|
---------------------------|---------------------------|
---------------------------|---------------------------|
--3-3-3--3--3--3--3--3--3--|--3-3-3--3--3--3--3--3--3--|


  S S E  E  E  E  E  E  E     S S E  E  E  E  E  E  E   
---------------------------|---------------------------|
---------------------------|---------------------------|
---------------------------|---------------------------|
---------------------------|---------------------------|
--1-1-1--1--1--------------|---------------------------|
---------------2--2--2--2--|--3-3-3--3--3--3--3--3--3--|


  S S E  E  E  E  E  E  E     S S E  E  E  E  E  E  E   
---------------------------|---------------------------|
---------------------------|---------------------------|
---------------------------|---------------------------|
---------------------------|---------------------------|
--0-0-0--0--0--0--0--0--0--|--1-1-1--1--1--1--1--1--1--|
---------------------------|---------------------------|

                       
                              (5.36) Keys solo

  E  E  E  E  E  E  E  E     S S E  E  S S E  S E  S E   
--------------------------|-----------------------------|
--------------------------|-----------------------------|
--------------------------|-----------------------------|
--------------------------|-----------------------------|
--1--1--1--1--1--1--1--1--|-----------------------------|
--------------------------|--1-1-1--1--1-1-1--1-1--1-1--|


  S S E  E  S S E  S E  S E     S S E  E  S S E  S E  S E   
-----------------------------|-----------------------------|
-----------------------------|-----------------------------|
-----------------------------|-----------------------------|
-----------------------------|-----------------------------|
--2-2-2--2--2-2-2--2-2--2-2--|-----------------------------|
-----------------------------|--1-1-1--1--1-1-1--1-1--1-1--|


  E  E  E  E  E  E  E  E     S S E  E  S S E  S E  S E   
--------------------------|-----------------------------|
--------------------------|-----------------------------|
--------------------------|-----------------------------|
--------------------------|-----------------------------|
--------------------------|-----------------------------|
--4--4--4--4--0--0--0--0--|--1-1-1--1--1-1-1--1-1--1-1--|


  S S E  E  S S E  S E  S E     S S E  E  S S E  S E  S E   
-----------------------------|-----------------------------|
-----------------------------|-----------------------------|
-----------------------------|-----------------------------|
-----------------------------|-----------------------------|
-----------------------------|-----------------------------|
--3-3-3--3--3-3-3--3-3--3-3--|--4-4-4--4--4-4-4--4-4--4-4--|

                            

                          (5.49) The Epic Questions!

  E  E  E  E  E  E  E  E     E  E  E  E  E  E  E  E     Q    E  E  Q    E  E   
--------------------------|--------------------------|------------------------|
--------------------------|--------------------------|------------------------|
--------------------------|--------------------------|------------------------|
--------------------------|--------------------------|------------------------|
--2--2--2--2--2--2--2--2--|--------------------------|------------------------|
--------------------------|--0--------0--------0-----|-------0----------0-----|


  E  E  E  E  E  E  E  E     Q    E  E  Q    E  E     E  E  E  E  E  E  E  E   
--------------------------|------------------------|--------------------------|
--------------------------|------------------------|--------------------------|
--------------------------|------------------------|--------------------------|
--------------------------|------------------------|--------------------------|
--------------------------|------------------------|--------------------------|
--0--------0--------0-----|-------0----------0-----|-----0--0-----0--0-----0--|


  E  E  E  E  Q    Q       E  E  E  E  E  E  E  E   
------------------------|--------------------------|
------------------------|--------------------------|
------------------------|--------------------------|
------------------------|--------------------------|
------------------------|--------------------------|
--0-----0--0-------0----|--1--------1--------1-----|


  E  E  E  E  S S S S S S S S    E  E  E  E  E  E  E  E     H.           Q     
------------------------------|--------------------------|--------------------|
------------------------------|--------------------------|--------------------|
------------------------------|--------------------------|--------------------|
----------------------2-2-3-3-|--------------------------|--------------------|
-----------0--2-2-3-3---------|--------------------------|--------------------|
--0--1--4---------------------|--0--------0--------0-----|---------------1----|


  Q    H.             
--------------------||
--------------------||
--------------------||
--------------------||
--------------------||
--0-----------------||







                                      


                                      4. DIMENSIONS OF FIRE

Note: I don't normally use repeats, but I put them here to tidy up the verses because they're quite repetitive. 
Hopefully the endings 1-8 make sense - **s denote repeat sections. 
                      
                              (0.01) Intro
                        
     H        E   E   Q          E  E  E  E  E  E  E  E   
C||-------------------------||---------------------------|
G||-------------------------||---------------------------|
D||-------------------------||*--------------------------|
A||-------------------------||*--------8--7--------------|
E||--------------/7--12\----||---0--0--------0--0--0--0--|
B||-------------------------||---------------------------|


  E  E  E  E  E  E  E  E     E  E  E  E  E  E  E  E   
--------------------------|--------------------------|
--------------------------|--------------------------|
--------------------------|--------------------------|
--------------------------|--------------------------|
--1--0--0--0--7--6-----6--|--L--0--1--0--0--0--0--0--|
--------------------------|--------------------------|


   E   E   E   S  S  E   E   E   E     E  E  E  E  E  E  E  E   
------------------------------------|--------------------------|
------------------------------------|--------------------------|
------------------------------------|--------------------------|
------------------------------------|--------------------------|
--12--12--12--12-12-12--12--12--12--|--0--0--1--0--0--0--0--0--|
------------------------------------|--------------------------|


  E  E  E  E  E  E  E  E     E  E  E  E  E  E  E  E   
--------------------------|--------------------------|
--------------------------|--------------------------|
--------------------------|--------------------------|
--------------------------|--------------------------|
--1--0--0--0--7--6-----6--|--L--0--1--0--0--0--0--0--|
--------------------------|--------------------------|



                                             (0.19) Verse 1

   S  S  E   E   S  S  E   E   S  S  E       E  E  E  E  E  E  E  E   
----------------------------------------||---------------------------|
----------------------------------------||---------------------------|
----------------------------------------||*--------------------------|
----------------------------------------||*--------------------------|
--10-12-12--12--10-12-12--12--10-12-12--||---0--0-----0-----0-----0--|
----------------------------------------||---------------------------|


        Endings 1,2,3,5,6,7.                     Ending 4.             Ending 8.
  E  E  E  E  E  E  E  E       E  E  E  E  E  S S E  E       H        H         
---------------------------||----------------------------||--------------------|
---------------------------||----------------------------||--------------------|
--------------------------*||---------------------------*||--------------------|
--------------------------*||---------------------------*||--------------------|
-----0-----0-----0-----0---||-----0-----0---------5--3---||--------------------|
---------------------------||-----------------3-5--------||--3--------2--------|


(0.54) Chorus 1

   E.   S  E   E   E.   S  E   E      E.   S  E   E   E.   S  E  E   
----------------------------------|---------------------------------|
----------------------------------|---------------------------------|
----------------------------------|------------------------------7--|
--10---10-10--10--10---10-10--10--|--10---10-10--10--10---10-10-----|
----------------------------------|---------------------------------|
----------------------------------|---------------------------------|


  E.  S E  E  E.  S E  E     E.  S E  E   E.   E.  E   
--------------------------|---------------------------|
--------------------------|---------------------------|
--8---8-8--8--8---8-8--8--|--8---8-8--8--12---10---8--|
--------------------------|---------------------------|
--------------------------|---------------------------|
--------------------------|---------------------------|


  E.  S E  E  E.  S E  E     E.  S E  E  E.  S E  E   
--------------------------|--------------------------|
--------------------------|--------------------------|
--------------------------|--------------------------|
--------------------------|--------------------------|
--------------------------|--------------------------|
--4---4-4--4--4---4-4--4--|--4---4-4--4--4---4-4--4--|


  E  E  E  E  E  E  E  E     E  E  E  E  E  E  E  E   
--------------------------|--------------------------|
--------------------------|--------------------------|
--------------------------|--------------------------|
--------------------------|--------------------------|
--------------------------|--------------------------|
--0--0--0--0--0--0--0--0--|--0--0--0--0--0--0--0--0--|


(1.11) Verse 2


                                    Endings 1,2,3,5,6,7.                     
    E  E  E  E  E  E  E  E     E  E  E  E  E  E  E  E     
|---------------------------|---------------------------||
|---------------------------|---------------------------||
|*--------------------------|--------------------------*||
|*--------------------------|--------------------------*||
|---0--0-----0-----0-----0--|-----0-----0-----0-----0---||
|---------------------------|---------------------------||

                   Ending 4.              Ending 8. 
  E  E  E  E  E  S S E  E       H        H         
----------------------------||--------------------|
----------------------------||--------------------|
---------------------------*||--------------------|
---------------------------*||--------------------|
-----0-----0---------5--3---||--------------------|
-----------------3-5--------||--3--------2--------|


(1.47) Chorus 2

   E.   S  E   E   E.   S  E   E      E.   S  E   E   E.   S  E  E   
----------------------------------|---------------------------------|
----------------------------------|---------------------------------|
----------------------------------|------------------------------7--|
--10---10-10--10--10---10-10--10--|--10---10-10--10--10---10-10-----|
----------------------------------|---------------------------------|
----------------------------------|---------------------------------|


  E.  S E  E  E.  S E  E     E.  S E  E   E.   E.  E   
--------------------------|---------------------------|
--------------------------|---------------------------|
--8---8-8--8--8---8-8--8--|--8---8-8--8--12---10---8--|
--------------------------|---------------------------|
--------------------------|---------------------------|
--------------------------|---------------------------|


  E.  S E  E  E.  S E  E     E.  S E  E  E.  S E  E   
--------------------------|--------------------------|
--------------------------|--------------------------|
--------------------------|--------------------------|
--------------------------|--------------------------|
--------------------------|--------------------------|
--4---4-4--4--4---4-4--4--|--4---4-4--4--4---4-4--4--|


  E  E  E  E  E  E  E  E     E  E  E  E  E  E  E  E   
--------------------------|--------------------------|
--------------------------|--------------------------|
--------------------------|--------------------------|
--------------------------|--------------------------|
--------------------------|--------------------------|
--0--0--0--0--0--0--0--0--|--0--0--0--0--0--0--0--0--|


(2.04) Verse 3

    E  E  E  E  E  E  E  E     E  E  E  E  E  E  E  E   
|---------------------------|--------------------------|
|---------------------------|--------------------------|
|---------------------------|--------------------------|
|---------------------------|--------------------------|
|---------------------------|--------------------------|
|---1--1-----1-----1-----1--|--1--1-----1-----1-----1--|


  E  E  E  E  E  E  E  E     E  E  E  E  E  S S E  E   
--------------------------|---------------------------|
--------------------------|---------------------------|
--------------------------|---------------------------|
--------------------------|---------------------1-----|
--------------------------|-----------------1-3----3--|
--1--1-----1-----1-----1--|--1--1-----1--L------------|


  E  E  E  E  E  E  E  E     E  E  E  E  E  E  E  E   
--------------------------|--------------------------|
--------------------------|--------------------------|
--------------------------|--------------------------|
--------------------------|--------------------------|
--------------------------|--------------------------|
--1--1-----1-----1-----1--|--1--1-----1-----1-----1--|


  E  E  E  E  E  E  E  E     E  E  E  E  E  S S E  E   
--------------------------|---------------------------|
--------------------------|---------------------------|
--------------------------|---------------------------|
--------------------------|---------------------1-----|
--------------------------|-----------------1-3----3--|
--1--1-----1-----1-----1--|--1--1-----1--L------------|


(2.21)

  E  E  E  E  E  E  E  E  E  E  E  E     E  E  E  E  E  E  E  E  E  E  E  E   
--------------------------------------|--------------------------------------|
--------------------------------------|--------------------------------------|
--------------------------------------|--------------------------------------|
--1--1--1--1--1--1--1--1--1--1--1--1--|--1--1--1--1--1--1--1--1--1--1--1--1--|
--------------------------------------|--------------------------------------|
--------------------------------------|--------------------------------------|


  E  E  E  E  E  E  E  E  E  E  E  E     E  E  E  E  E  E     Q    Q     
--------------------------------------|--------------------|------------|
--------------------------------------|--------------------|------------|
--------------------------------------|--------------------|------------|
--1--1--1--1--1--1--0--0--0--0--0--0--|--------------------|------------|
--------------------------------------|--4--4--4--4--4--4--|------------|
--------------------------------------|--------------------|--1----3----|


(2.35) Intro again

  E  E  E  E  E  E  E  E     E  E  E  E  E  E  E  E   
--------------------------|--------------------------|
--------------------------|--------------------------|
--------------------------|--------------------------|
--------8--7--------------|--------------------------|
--0--0--------0--0--0--0--|--1--0--0--0--7--6-----6--|
--------------------------|--------------------------|


  E  E  E  E  E  E  E  E     E  E  E  E  E  E  E  E   
--------------------------|--------------------------|
--------------------------|--------------------------|
--------------------------|--------------------------|
--------------------------|--------------------------|
--L--0--1--0--0--0--0--0--|--0--0--0--0--0--0--0--0--|
--------------------------|--------------------------|


  E  E  E  E  E  E  E  E     E  E  E  E  E  E  E  E   
--------------------------|--------------------------|
--------------------------|--------------------------|
--------------------------|--------------------------|
--------8--7--------------|--------------------------|
--0--0-----------0-----0--|-----0-----0-----6-----6--|
--------------------------|--------------------------|


  E  E  E  E  E  E  E  E      S  S  E   E   S  S  E   E   S  S  E   
--------------------------|----------------------------------------|
--------------------------|----------------------------------------|
--------------------------|----------------------------------------|
--------------------------|----------------------------------------|
--L--0--1--0--0--0--0--0--|--10-12-12--12--10-12-12--12--10-12-12--|
--------------------------|----------------------------------------|


(2.52) Verse 4

                                    Endings 1,2,3,5,6,7
    E  E  E  E  E  E  E  E     E  E  E  E  E  E  E  E   8x
|---------------------------|---------------------------||
|---------------------------|---------------------------||
|*--------------------------|--------------------------*||
|*--------------------------|--------------------------*||
|---0--0-----0-----0-----0--|-----0-----0-----0-----0---||
|---------------------------|---------------------------||

                   Ending 4.              Ending 8.
  E  E  E  E  E  S S E  E       H        H         
----------------------------||--------------------|
----------------------------||--------------------|
---------------------------*||--------------------|
---------------------------*||--------------------|
-----0-----0---------5--3---||--------------------|
-----------------3-5--------||--3--------2--------|



(3.28) Chorus 3

   E.   S  E   E   E.   S  E   E      E.   S  E   E   E.   S  E  E   
----------------------------------|---------------------------------|
----------------------------------|---------------------------------|
----------------------------------|------------------------------7--|
--10---10-10--10--10---10-10--10--|--10---10-10--10--10---10-10-----|
----------------------------------|---------------------------------|
----------------------------------|---------------------------------|


  E.  S E  E  E.  S E  E     E.  S E  E   E.   E.  E   
--------------------------|---------------------------|
--------------------------|---------------------------|
--8---8-8--8--8---8-8--8--|--8---8-8--8--12---10---8--|
--------------------------|---------------------------|
--------------------------|---------------------------|
--------------------------|---------------------------|


  E.  S E  E  E.  S E  E     E.  S E  E  E.  S E  E   
--------------------------|--------------------------|
--------------------------|--------------------------|
--------------------------|--------------------------|
--------------------------|--------------------------|
--------------------------|--------------------------|
--4---4-4--4--4---4-4--4--|--4---4-4--4--4---4-4--4--|


  E  E  E  E  E  E  E  E     E  E  E  E  E  E  E  E   
--------------------------|--------------------------|
--------------------------|--------------------------|
--------------------------|--------------------------|
--------------------------|--------------------------|
--------------------------|--------------------------|
--0--0--0--0--0--0--0--0--|--0--0--0--0--0--0--0--0--|


(3.45) Verse 5

  E  E  E  E  E  E  E  E     E  E  E  E  E  E  E  E   
--------------------------|--------------------------|
--------------------------|--------------------------|
--------------------------|--------------------------|
--------------------------|--------------------------|
--------------------------|--------------------------|
--1--1-----1-----1-----1--|--1--1-----1-----1-----1--|


  E  E  E  E  E  E  E  E     E  E  E  E  E  S S E  E   
--------------------------|---------------------------|
--------------------------|---------------------------|
--------------------------|---------------------------|
--------------------------|---------------------1-----|
--------------------------|-----------------1-3----3--|
--1--1-----1-----1-----1--|--1--1-----1--L------------|


  E  E  E  E  E  E  E  E     E  E  E  E  E  E  E  E   
--------------------------|--------------------------|
--------------------------|--------------------------|
--------------------------|--------------------------|
--------------------------|--------------------------|
--------------------------|--------------------------|
--1--1-----1-----1-----1--|--1--1-----1-----1-----1--|


  E  E  E  E  E  E  E  E     E  E  E  E  E  S S E  E   
--------------------------|---------------------------|
--------------------------|---------------------------|
--------------------------|---------------------------|
--------------------------|---------------------1-----|
--------------------------|-----------------1-3----3--|
--1--1-----1-----1-----1--|--1--1-----1--L------------|

(4.03)

  E  E  E  E  E  E  E  E  E  E  E  E     E  E  E  E  E  E  E  E  E  E  E  E   
--------------------------------------|--------------------------------------|
--------------------------------------|--------------------------------------|
--------------------------------------|--------------------------------------|
--1--1--1--1--1--1--1--1--1--1--1--1--|--1--1--1--1--1--1--1--1--1--1--1--1--|
--------------------------------------|--------------------------------------|
--------------------------------------|--------------------------------------|


  E  E  E  E  E  E  E  E  E  E  E  E     E  E  E  E  E  E     Q    Q     
--------------------------------------|--------------------|------------|
--------------------------------------|--------------------|------------|
--------------------------------------|--------------------|------------|
--1--1--1--1--1--1--0--0--0--0--0--0--|--------------------|-------0----|
--------------------------------------|--4--4--4--4--4--4--|--3---------|
--------------------------------------|--------------------|------------|



(4.16) Bridge 
  W                   H        H           W                 
-------------------|--------------------|-------------------|
-------------------|--------------------|-------------------|
-------------------|--------------------|-------------------|
-------------------|--------------------|-------------------|
-------------------|--------------------|-------------------|
--0----------------|--L--------3--------|--4----------------|


  H        H           W                   H        H         
--------------------|-------------------|--------------------|
--------------------|-------------------|--------------------|
--------------------|-------------------|--------------------|
--------------------|-------------------|--------------------|
--------------------|-------------------|--------------------|
--L--------1--------|--0----------------|--L--------3--------|

                               
  W                   H        E  E  Q       W                 
-------------------|----------------------|-------------------|
-------------------|----------------------|-------------------|
-------------------|----------------------|-------------------|
-------------------|----------------------|-------------------|
-------------------|----------------------|-------------------|
--4----------------|--L--------1--1-------|--0----------------|


  H        H           W                   H        H         
--------------------|-------------------|--------------------|
--------------------|-------------------|--------------------|
--------------------|-------------------|--------------------|
--------------------|-------------------|--------------------|
--------------------|-------------------|--------------------|
--L--------3--------|--4----------------|--L--------1--------|


  W                   H        H           W                 
-------------------|--------------------|-------------------|
-------------------|--------------------|-------------------|
-------------------|--------------------|-------------------|
-------------------|--------------------|-------------------|
-------------------|--------------------|-------------------|
--0----------------|--L--------3--------|--4----------------|


                       (4.51) Guitar solo

  H        E  E  E  E     E  E  E  E  E  E  E  E     E  E  E  E  E  E  E  E   
-----------------------|--------------------------|--------------------------|
-----------------------|--------------------------|--------------------------|
-----------------------|--------------------------|--------------------------|
-----------------------|--------------------------|--------------------------|
-----------------------|--------------------------|-----------3--2-----------|
--L--------2--2--2--2--|--1--1--1--1--1--0--1--3--|--1--1--1--------3--0--3--|


  E  E  E  E  E  E  E  E     E  E  E  E  E  E  E  E   
--------------------------|--------------------------|
--------------------------|--------------------------|
--------------------------|--------------------------|
--------------------------|--------------------------|
--0--0--0--0--0-----------|--0--0--0--0--3--2--0-----|
-----------------0--3--0--|-----------------------3--|


  E  E  E  E  E  E  E  E     E  E  E  E  E  E  E  E   
--------------------------|--------------------------|
--------------------------|--------------------------|
--------------------------|--------------------------|
--------------------------|--------------------------|
--------------------------|-----------3--2-----------|
--1--1--1--1--1--0--1--3--|--1--1--1--------3--0--3--|


  E  E  E  E  E  E  E  E     E  E  E  E  E  E  E  E   
--------------------------|--------------------------|
--------------------------|--------------------------|
--------------------------|--------------------------|
--------------------------|--------------------0--2--|
--0--0--0--0--0--0--0--0--|--0--2--2--2--3--3--------|
--------------------------|--------------------------|


  E  E  E  E  E  E  E  E     E  E  E  E  E  E  E  E   
--------------------------|--------------------------|
--------------------------|--------------------------|
--------------------------|--------------------------|
--3--3--3--3--3--2--3--2--|--3--3--3--5--3--2--0-----|
--------------------------|-----------------------3--|
--------------------------|--------------------------|


  E  E  E  E  E  E  E  E     E  E  E  E  E  E  E  E   
--------------------------|--------------------------|
--------------------------|--------------------------|
--------------------------|--------------------------|
--------------------------|--------------------------|
--0--0--0--0--0--0--0--0--|--0--0--0--0--0--2--3--0--|
--------------------------|--------------------------|


  E  E  E  E  E  E  E  E     E  E  E  E  E  E  E  E   
--------------------------|--------------------------|
--------------------------|--------------------------|
--------------------------|--------------------------|
--------------------------|--------------------------|
--------------------------|-----------------------3--|
--1--1--1--0--1--1--1--0--|--1--1--1--0--1--0--1-----|


  E  E  E  E  E  E  E  E     E  E  E  E  E  E  E  E     H.           E  E   
--------------------------|--------------------------|---------------------|
--------------------------|--------------------------|---------------------|
--------------------------|--------------------------|---------------------|
--------------------------|--------------------0-----|---------------------|
--0--0--0--0--0--0--0--0--|--0--0--2--2--3--3-----3--|------------------3--|
--------------------------|--------------------------|--1------------------|


                     (5.31) Keys solo

  H        H           H.           E  E     H.           E  S S  
--------------------|---------------------|----------------------|
--------------------|---------------------|----------------------|
--------------------|---------------------|----------------------|
-----------5--------|--7---------------5--|--7---------------2-5-|
--------------------|---------------------|----------------------|
--1-----------------|---------------------|----------------------|


  H.           E  E     H        Q    Q       H.           E  E   
---------------------|---------------------|---------------------|
---------------------|---------------------|---------------------|
---------------------|----------------5----|---------------------|
--3---------------2--|--3--------3---------|--7------------------|
---------------------|---------------------|------------------7--|
---------------------|---------------------|---------------------|


            |----3----|                                               
  Q.     E  Q    Q    Q       H.           E  E     W                 
---------------------------|---------------------|-------------------|
---------------------------|---------------------|-------------------|
---------------------------|---------------------|-------------------|
-----------------0----2----|--3---------------2--|--3----------------|
--0------2--3--------------|---------------------|-------------------|
---------------------------|---------------------|-------------------|


                                  |----3----|                           
  H.           E  E     Q.     E  Q    Q    Q       H.           E  E   
---------------------|---------------------------|---------------------|
---------------------|---------------------------|---------------------|
---------------------|---------5--4--------------|------------------5--|
---------------------|--7--------------7----5----|--3------------------|
--0---------------7--|---------------------------|---------------------|
---------------------|---------------------------|---------------------|


  |----3----|    |----3----|                                
  Q    Q    Q    Q    Q    Q       E  E  E  E  E  E  E  E   
--------------------------------|--------------------------|
--7----5----4----2--------------|--------------------------|
----------------------5----4----|--2-----------------------|
--------------------------------|--------------------------|
--------------------------------|-----0--0--0--0--0--0--0--|
--------------------------------|--------------------------|


                           (6.01) Keys solo picks up

  E  E  E  E  E  E  E  E     E  S S S S S S E  S S S S S S  
--------------------------|--------------------------------|
--------------------------|--------------------------------|
--------------------------|--------------------------------|
--------------------------|--------------------------------|
--0--0--0--0--0--0--0--0--|--3--3-3-3-3---3-3--3-3-3-3---3-|
--------------------------|--------------------------------|


  E  S S S S S S E  S S S S S S    E  S S S S S S E  S S S S S S  
--------------------------------|--------------------------------|
--------------------------------|--------------------------------|
--------------------------------|--------------------------------|
--------------------------------|--------------------------------|
--3--3-3-3-3---3-3--3-3-3-3---3-|--6--6-6-6-6---6-6--6-6-6-6---6-|
--------------------------------|--------------------------------|


  E  S S S S S S E  S S S S S S    E  S S S S S S E  S S S S S S  
--------------------------------|--------------------------------|
--------------------------------|--------------------------------|
--------------------------------|--------------------------------|
--------------------------------|--------------------------------|
--6--6-6-6-6---6-6--6-6-6-6---6-|--------------------------------|
--------------------------------|--4--4-4-4-4---4-4--4-4-4-4---4-|


  E  S S S S S S E  S S E  E     E  E  E  E  E  E  E  E   
------------------------------|--------------------------|
------------------------------|--------------------------|
------------------------------|--------------------------|
------------------------------|--------------------------|
------------------------------|--------------------------|
--4--4-4-4-4---4-4--4-4-4--4--|--0--0--0--0--0--0--0--0--|

                           (6.18) Verse 6 [6!? What the hell]

  E  E  E  E  E  E  E  E     E  E  E  E  E  E  E  E   
--------------------------|--------------------------|
--------------------------|--------------------------|
--------------------------|--------------------------|
--------------------------|--------------------------|
--------------------------|--------------------------|
--0--0--0--0--0--0--0--0--|--1--1-----1-----1-----1--|


  E  E  E  E  E  E  E  E     E  E  E  E  E  E  E  E   
--------------------------|--------------------------|
--------------------------|--------------------------|
--------------------------|--------------------------|
--------------------------|--------------------------|
--------------------------|--------------------------|
--1--1-----1-----1-----1--|--1--1-----1-----1-----1--|


  E  E  E  E  E  S S E  E     E  E  E  E  E  E  E  E   
---------------------------|--------------------------|
---------------------------|--------------------------|
---------------------------|--------------------------|
---------------------1-----|--------------------------|
-----------------1-3----3--|--------------------------|
--1--1-----1--L------------|--1--1-----1-----1-----1--|


  E  E  E  E  E  E  E  E     E  E  E  E  E  E  E  E   
--------------------------|--------------------------|
--------------------------|--------------------------|
--------------------------|--------------------------|
--------------------------|--------------------------|
--------------------------|--------------------------|
--1--1-----1-----1-----1--|--1--1-----1-----1-----1--|

                               (6.36)

  E  E  E  E  E  S S E  E     E  E  E  E  E  E  E  E  E  E  E  E   
---------------------------|--------------------------------------|
---------------------------|--------------------------------------|
---------------------------|--------------------------------------|
---------------------1--3--|--1--1--1--1--1--1--1--1--1--1--1--1--|
-----------------1-3-------|--------------------------------------|
--1--1-----1--L------------|--------------------------------------|


  E  E  E  E  E  E  E  E  E  E  E  E     E  E  E  E  E  E  E  E  E  E  E  E   
--------------------------------------|--------------------------------------|
--------------------------------------|--------------------------------------|
--------------------------------------|--------------------------------------|
--1--1--1--1--1--1--1--1--1--1--1--1--|--1--1--1--1--1--1--0--0--0--0--0--0--|
--------------------------------------|--------------------------------------|
--------------------------------------|--------------------------------------|

                                   (6.48) Outro
  E  E  E  E  E  E     Q    Q       W                   H        E  E  E  E   
--------------------|------------|-------------------|-----------------------|
--------------------|------------|-------------------|-----------------------|
--------------------|------------|-------------------|-----------------------|
--------------------|------------|-------------------|-----------------------|
--4--4--4--4--4--4--|------------|-------------------|--------------7--0--6--|
--------------------|--1----3----|-------------------|-----------------------|


    E  E  E  E  E  E  E  E     E  E  E  E  E  E  E  E   7x  Q    H.             
|---------------------------|---------------------------||--------------------||
|---------------------------|---------------------------||--------------------||
|*--------------------------|--------------------------*||--------------------||
|*--------------------------|--------------------------*||--------------------||
|---L--0--0--0--0--0--0--0--|--0--0--0--0--0--7--0--6---||--L-----------------||
|---------------------------|---------------------------||--------------------||









                          5. DREAMSCAPE LUCIDITY

(0.00) Intro
                             H        H                         
C||-------|-------|-------|--------------------|-------|-------|
G||-------|-------|-------|--------------------|-------|-------|
D||-------|-------|-------|--------------------|-------|-------|
A||-------|-------|-------|--------------------|-------|-------|
E||-------|-------|-------|--------------------|-------|-------|
B||-------|-------|-------|--3--------0--------|-------|-------|


                     (0.11) Good luck...

  H        H           S S S S S S S S S S S S S S S S  
--------------------|----------------------------------|
--------------------|----------------------------------|
--------------------|----------------------------------|
--5-----------------|------------------------0-2-0-----|
-----------7--------|--0-0-0-0-0-0-0-0-0-2-3-------3-2-|
--------------------|----------------------------------|


  S S S S S S S S S S S S S S S S    S S S S S S S S S S S S S S S S  
----------------------------------|----------------------------------|
----------------------------------|----------------------------------|
----------------------------------|----------------------------------|
------------------2-3-2-0-2-0-----|------------------------0-2-0-----|
--0-0-0-0-0-0-0-0-------------3-2-|--0-0-0-0-0-0-0-0-0-2-3-------3-2-|
----------------------------------|----------------------------------|


  H        H           S S S S S S S S S S S S S S S S  
--------------------|----------------------------------|
--------------------|----------------------------------|
--------------------|----------------------------------|
--5-----------------|------------------------0-2-0-----|
-----------7--------|--0-0-0-0-0-0-0-0-0-2-3-------3-2-|
--------------------|----------------------------------|


  S S S S S S S S S S S S S S S S    S S S S S S S S S S S S S S S S  
----------------------------------|----------------------------------|
----------------------------------|----------------------------------|
----------------------------------|----------------------------------|
------------------2-3-2-0-2-0-----|------------------------0-2-0-----|
--0-0-0-0-0-0-0-0-------------3-2-|--0-0-0-0-0-0-0-0-0-2-3-------3-2-|
----------------------------------|----------------------------------|

                     (0.23) Chorus 1

  H        H           Q    Q    H           H        E  E  E  E   
--------------------|---------------------|-----------------------|
--------------------|---------------------|-----------------------|
--------------------|---------------------|-----------------------|
--5-----------------|---------------------|-----------------------|
-----------7--------|--0------------------|--------------------2--|
--------------------|---------------------|--------------0--3-----|


  Q    H.              H        E  E  E  E     E  E  E  E  E  E  E  E   
--------------------|-----------------------|--------------------------|
--------------------|-----------------------|--------------------------|
--------------------|-----------------------|-----------4--5--4--------|
--------------------|--5--------2--0--------|--------7-----------7--5--|
--0-----------------|-----------------3--2--|--0--7--------------------|
--------------------|-----------------------|--------------------------|


  Q    Q    Q.     E     E  E  E  E  E  E  E  E     H        H         
----------------------|--------------------------|--------------------|
----------------------|--------------------------|--------------------|
-------5----4---------|-----------4--5--4--------|--------------------|
--7-------------------|--------7-----------7-----|--5-----------------|
----------------------|--0--7-----------------7--|-----------7--------|
-------------------0--|--------------------------|--------------------|



  Q    Q    Q    Q       Q    Q    Q    Q       Q    Q    Q    E  E   
----------------------|----------------------|-----------------------|
----------------------|----------------------|-----------------------|
----------------------|--2-------------------|-----------------------|
-----------------2----|-------2----3----0----|--2---------0----------|
--0----0----3---------|----------------------|-------3---------3--2--|
----------------------|----------------------|-----------------------|





  E  E  E  E  S S E  E  E     E  E  E  E  E  Q    E     W                 
---------------------------|-------------------------|-------------------|
---------------------------|-------------------------|-------------------|
--2------------------------|-------------------------|-------------------|
-----2--3--0--2-2----0-----|-----0-------------------|-------------------|
------------------3-----2--|--3-----3--2--0----------|-------------------|
---------------------------|-------------------------|--3----------------|


                           (0.45) Verse 1

  H        E  E  E  E     E  E  E  E  S S E  E  E     E  E  E  E  S S E  E  E   
-----------------------|---------------------------|---------------------------|
-----------------------|---------------------------|---------------------------|
-----------------------|---------------------------|---------------------------|
-----------2--5--L--2--|--4--4--4--4--4-4-4--4--4--|--4--4--4--4--2-2-5--L--2--|
-----------------------|---------------------------|---------------------------|
--L--------------------|---------------------------|---------------------------|


  E  E  E  E  S S E  E  E     E  E  E  S S S S E  E  E   
---------------------------|----------------------------|
---------------------------|----------------------------|
---------------------------|----------------------------|
--4--4--4--4--4-4-4--4--4--|--4--4--4--4-5-7-7-5--4--0--|
---------------------------|----------------------------|
---------------------------|----------------------------|


  E  E  E  E  S S E  E  E     E  E  E  E  S S E  E  E   
---------------------------|---------------------------|
---------------------------|---------------------------|
---------------------------|---------------------------|
--2--2--2--2--2-2-2--4--2--|--0--0--0--0--0-0-0--0--0--|
---------------------------|---------------------------|
---------------------------|---------------------------|


  E  E  E  E  S S E  E  E     E  S S E  S S E  E  E  E   
---------------------------|----------------------------|
---------------------------|----------------------------|
---------------------------|----------------------------|
---------------------------|----------------2--5--L--2--|
--0--0--0--0--0-0-0--0--0--|--2--2-2-2--2-2-------------|
---------------------------|----------------------------|


  E  E  Q    S S E  Q       E  E  Q    S S E  E  E     E  E  Q    S S E  Q     
-------------------------|--------------------------|-------------------------|
-------------------------|--------------------------|-------------------------|
-------------------------|--------------------------|-------------------------|
--------4-----------4----|--------4----2-2-5--L--2--|--------4-----------4----|
-------------------------|--------------------------|-------------------------|
--2--2-------2-2-2-------|--2--2--------------------|--2--2-------2-2-2-------|


  E  E  E  E  S S E  E  E     E  E  E  E  S S E  E  E   
---------------------------|---------------------------|
---------------------------|---------------------------|
---------------------------|---------------------------|
--------4--4--7-7-5--L--4--|--2--2--2--2--2-2-2--2--2--|
---------------------------|---------------------------|
--2--2---------------------|---------------------------|


  E  E  E  E  S S E  E  E     E  E  E  E  S S E  E  E   
---------------------------|---------------------------|
---------------------------|---------------------------|
---------------------------|---------------------------|
--0--0--0--0--0-0-0--0--0--|---------------------------|
---------------------------|--0--0--0--0--0-0-0--0--0--|
---------------------------|---------------------------|


                               (1.08) Chorus 2

  E  S S E  S S E  S S E  S S    Q    Q    H           H        E  E  E  E   
------------------------------|---------------------|-----------------------|
------------------------------|---------------------|-----------------------|
------------------------------|---------------------|-----------------------|
------------------------------|---------------------|-----------------------|
--2--2-2-2--2-2-2--2-2-2--2-2-|--0------------------|--------------------2--|
------------------------------|---------------------|--------------0--3-----|


  Q    H.              H        E  E  E  E     E  E  E  E  E  E  E  E   
--------------------|-----------------------|--------------------------|
--------------------|-----------------------|--------------------------|
--------------------|-----------------------|-----------4--5--4--------|
--------------------|--5--------2--0--------|--------7-----------7--5--|
--0-----------------|-----------------3--2--|--0--7--------------------|
--------------------|-----------------------|--------------------------|


  Q    Q    Q.     E     E  E  E  E  E  E  E  E     H        H         
----------------------|--------------------------|--------------------|
----------------------|--------------------------|--------------------|
-------5----4---------|-----------4--5--4--------|--------------------|
--7-------------------|--------7-----------7-----|--5-----------------|
----------------------|--0--7-----------------7--|-----------7--------|
-------------------0--|--------------------------|--------------------|


              (1.21) Verse 2

  E  E  E  E     E  E  E  E  S S E  E  E     E  E  E  E  S S E  E  E   
--------------|---------------------------|---------------------------|
--------------|---------------------------|---------------------------|
--------------|---------------------------|---------------------------|
--2--5--L--2--|--4--4--4--4--4-4-4--4--4--|--4--4--4--4--2-2-5--L--2--|
--------------|---------------------------|---------------------------|
--------------|---------------------------|---------------------------|




  E  E  E  E  S S E  E  E     E  E  E  E  S S E  E  E   
---------------------------|---------------------------|
---------------------------|---------------------------|
---------------------------|---------------------------|
--4--4--4--4--4-4-4--4--4--|--4--4--4--4--7-7-5--L--0--|
---------------------------|---------------------------|
---------------------------|---------------------------|


  E  E  E  E  S S E  E  E     E  E  E  E  S S E  E  E   
---------------------------|---------------------------|
---------------------------|---------------------------|
---------------------------|---------------------------|
--2--2--2--2--2-2-2--2--2--|--0--0--0--0--0-0-0--0--0--|
---------------------------|---------------------------|
---------------------------|---------------------------|


  E  E  E  E  S S E  E  E     E  S S E  S S E  E  E  E   
---------------------------|----------------------------|
---------------------------|----------------------------|
---------------------------|----------------------------|
---------------------------|----------------2--5--L--2--|
--0--0--0--0--0-0-0--0--0--|--2--2-2-2--2-2-------------|
---------------------------|----------------------------|


  E  E  Q    S S E  Q       E  E  Q    S S E  E  E     E  E  Q    S S E  Q     
-------------------------|--------------------------|-------------------------|
-------------------------|--------------------------|-------------------------|
-------------------------|--------------------------|-------------------------|
--------4-----------4----|--------4----2-2-5--L--2--|--------4-----------4----|
-------------------------|--------------------------|-------------------------|
--2--2-------2-2-2-------|--2--2--------------------|--2--2-------2-2-2-------|



  E  E  E  S S S S E  E  E     E  E  E  E  S S E  E  E   
----------------------------|---------------------------|
----------------------------|---------------------------|
----------------------------|---------------------------|
--------4--4-5-7-7-5--L--0--|--2--2--2--2--2-2-2--2--2--|
----------------------------|---------------------------|
--2--2----------------------|---------------------------|



  E  E  E  E  S S E  E  E     E  E  E  E  S S E  E  E   
---------------------------|---------------------------|
---------------------------|---------------------------|
---------------------------|---------------------------|
--0--0--0--0--0-0-0--0--0--|---------------------------|
---------------------------|--0--0--0--0--0-0-0--0--0--|
---------------------------|---------------------------|

                               (1.44) Chorus 3

  E  S S E  S S E  S S E  E     Q    Q    H           H        E  E  E  E   
-----------------------------|---------------------|-----------------------|
-----------------------------|---------------------|-----------------------|
-----------------------------|---------------------|--------------------4--|
-----------------------------|---------------------|-----------------5-----|
--2--2-2-2--2-2-2--2-2-2--2--|--0------------------|--------------7--------|
-----------------------------|---------------------|-----------------------|


  Q    H.              H        E  E  E  E     E  E  E  E  E  E  E  E   
--------------------|-----------------------|--------------------------|
--------------------|-----------------------|--------------------------|
--------------------|-----------------------|-----------4--5--4--------|
--7-----------------|--5--------2--0--------|--------7-----------7--5--|
--------------------|-----------------3--2--|--0--7--------------------|
--------------------|-----------------------|--------------------------|



  Q    Q    Q.     E     E  E  E  E  E  E  E  E     H        H         
----------------------|--------------------------|--------------------|
----------------------|--------------------------|--------------------|
-------9----7---------|-----------4--5--4--------|--------------------|
--7-------------------|--------7-----------7--5--|--5-----------------|
----------------------|--0--7--------------------|-----------7--------|
-------------------0--|--------------------------|--------------------|


  Q    Q    Q    Q       Q    Q    Q    E  E     E  E  E  E  S S E  E  E   
----------------------|-----------------------|---------------------------|
----------------------|-----------------------|---------------------------|
----------------------|-----------------------|--2------------------------|
--7-------------------|-----------------------|-----2--3--0--2-2----0-----|
-------7----8----5----|--7----3----5----3--2--|------------------3-----2--|
----------------------|-----------------------|---------------------------|


                          (2.02) Intro again

  E  E  E  E  E  Q.        S S S S S S S S S S S S S S S S  
------------------------|----------------------------------|
------------------------|----------------------------------|
------------------------|----------------------------------|
-----0------------------|------------------------0-2-0-----|
--3-----3--2--0---------|--0-0-0-0-0-0-0-0-0-2-3-------3-2-|
------------------------|----------------------------------|


  S S S S S S S S S S S S S S S S    S S S S S S S S S S S S S S S S  
----------------------------------|----------------------------------|
----------------------------------|----------------------------------|
----------------------------------|----------------------------------|
------------------2-3-2-0-2-0-----|------------------------0-2-0-----|
--0-0-0-0-0-0-0-0-------------3-2-|--0-0-0-0-0-0-0-0-0-2-3-------3-2-|
----------------------------------|----------------------------------|


  H        H           S S S S S S S S S S S S S S S S  
--------------------|----------------------------------|
--------------------|----------------------------------|
--------------------|----------------------------------|
--5-----------------|------------------------0-2-0-----|
-----------7--------|--0-0-0-0-0-0-0-0-0-2-3-------3-2-|
--------------------|----------------------------------|


  S S S S S S S S S S S S S S S S    S S S S S S S S S S S S S S S S  
----------------------------------|----------------------------------|
----------------------------------|----------------------------------|
----------------------------------|----------------------------------|
------------------2-3-2-0-2-0-----|------------------------0-2-0-----|
--0-0-0-0-0-0-0-0-------------3-2-|--0-0-0-0-0-0-0-0-0-2-3-------3-2-|
----------------------------------|----------------------------------|


                      (2.14) 12/8 section: Bridge

                       |--3--|  |--3--|  |--3--|  |--3--|   
  H        H           E  E  E  E  E  E  E  E  E  E  E  E   
--------------------|--------------------------------------|
--------------------|--------------------------------------|
--------------------|--------------------------------------|
--5-----------------|--------------------------------------|
-----------7--------|--0--0--0--0--0--0--0--0--0--0--0--0--|
--------------------|--------------------------------------|


  |--3--|  |--3--|  |--3--|  |--3--|     |--3--|  |--3--|  |--3--|  |--3--|   
  E  E  E  E  E  E  E  E  E  E  E  E     E  E  E  E  E  E  E  E  E  E  E  E   
--------------------------------------|--------------------------------------|
--------------------------------------|--------------------------------------|
--------------------------------------|--------------------------------------|
--3--3--3--3--3--3--3--3--3--3--3--3--|--------------------------------------|
--------------------------------------|--3--3--3--3--3--3--3--3--3--3--3--3--|
--------------------------------------|--------------------------------------|


  |--3--|  |--3--|  |--3--|  |--3--|     |--3--|  |--3--|  |--3--|  |--3--|   
  E  E  E  E  E  E  E  E  E  E  E  E     E  E  E  E  E  E  E  E  E  E  E  E   
--------------------------------------|--------------------------------------|
--------------------------------------|--------------------------------------|
--------------------------------------|--------------------------------------|
--5--5--5--5--5--5--5--5--5--5--5--5--|--7--7--7--7--7--7--5--5--5--5--5--5--|
--------------------------------------|--------------------------------------|
--------------------------------------|--------------------------------------|


  |--3--|  |--3--|  |--3--|  |--3--|     |--3--|  |--3--|  |--3--|  |--3--|   
  E  E  E  E  E  E  E  E  E  E  E  E     E  E  E  E  E  E  E  E  E  E  E  E   
--------------------------------------|--------------------------------------|
--------------------------------------|--------------------------------------|
--------------------------------------|--------------------------------------|
--4--4--4--4--4--4--0--0--0--0--0--0--|--3--3--3--3--3--3--3--3--3--3--3--3--|
--------------------------------------|--------------------------------------|
--------------------------------------|--------------------------------------|

                                        (2.26) Operatic Female voice enters

  |--3--|  |--3--|  |--3--|  |--3--|     |--3--|  |--3--|  |--3--|  |--3--|   
  E  E  E  E  E  E  E  E  E  E  E  E     E  E  E  E  E  E  E  E  E  E  E  E   
--------------------------------------|--------------------------------------|
--------------------------------------|--------------------------------------|
--------------------------------------|--------------------------------------|
--3--3--3--3--3--3--3--3--3--3--3--3--|--------------------------------------|
--------------------------------------|--2--2--2--2--2--2--2--2--2--2--2--2--|
--------------------------------------|--------------------------------------|


  |--3--|  |--3--|  |--3--|  |--3--|     |--3--|  |--3--|  |--3--|  |--3--|   
  E  E  E  E  E  E  E  E  E  E  E  E     E  E  E  E  E  E  E  E  E  E  E  E   
--------------------------------------|--------------------------------------|
--------------------------------------|--------------------------------------|
--------------------------------------|--------------------------------------|
--------------------------------------|--------------------------------------|
--2--2--2--2--2--2--2--2--2--2--2--2--|--2--2--2--2--2--2--2--2--2--2--2--2--|
--------------------------------------|--------------------------------------|


  |----3----|    |----3----|       |--3--|  |--3--|  |--3--|  |--3--|   
  Q    Q    Q    Q    Q    Q       E  E  E  E  E  E  E  E  E  E  E  E   
--------------------------------|--------------------------------------|
--------------------------------|--------------------------------------|
--------------------------------|--------------------------------------|
--------------------------------|--------------------------------------|
--------------------------------|--2--2--2--2--2--2--2--2--2--2--2--2--|
--0----0----0----3----3----3----|--------------------------------------|


  |--3--|  |--3--|  |--3--|  |--3--|     |--3--|  |--3--|  |--3--|  |--3--|   
  E  E  E  E  E  E  E  E  E  E  E  E     E  E  E  E  E  E  E  E  E  E  E  E   
--------------------------------------|--------------------------------------|
--------------------------------------|--------------------------------------|
--------------------------------------|--------------------------------------|
--------------------------------------|--------------------------------------|
--2--2--2--2--2--2--2--2--2--2--2--2--|--2--2--2--2--2--2--2--2--2--2--2--2--|
--------------------------------------|--------------------------------------|

  
                                   (2.38) Riff


  |----3----|    |----3----|       |--3--|  |--3--|  |--3--|        
  Q    Q    Q    Q    Q    Q       E  E  E  E  E  E  E  E  E  Q     
--------------------------------|----------------------------------|
--------------------------------|----------------------------------|
--------------------------------|----------------------------------|
--------------------------------|----------------------------------|
--------------------------------|--2--2--2--2--2--2--5--4--2--4----|
--0----0----0----3----3----3----|----------------------------------|


  |--3--|  |--3--|  |--3--|  |--3--|     |--3--|  |--3--|  |--3--|        
  E  E  E  E  E  E  E  E  E  E  E  E     E  E  E  E  E  E  E  E  E  Q     
--------------------------------------|----------------------------------|
--------------------------------------|----------------------------------|
--------------------------------------|----------------------------------|
-----------------------------------2--|----------------------------------|
--0--0--0--0--0--0--5--0--0--4--5-----|--2--2--2--2--2--2--5--4--2--4----|
--------------------------------------|----------------------------------|


  |--3--|  |--3--|  |--3--|  |--3--|     |--3--|                
  E  E  E  E  E  E  E  E  E  E  E  E     E  E  E  H.            
--------------------------------------|------------------------|
--------------------------------------|------------------------|
--------------------------------------|------------------------|
--------------------------------------|------------------------|
--0--0--0--0--0--0--5--0--0--4--5--0--|--2-----2---------------|
--------------------------------------|------------------------|


                                  (2.48)

  |--3--|  |--3--|               |--3--|  |--3--|  |--3--|  |--3--|   
  E  E  E  E  E  E  Q    Q       E  E  E  E  E  E  E  E  E  E  E  E   
------------------------------|--------------------------------------|
------------------------------|--------------------------------------|
------------------------------|--------------------------------------|
-------------------------4----|--5--5--5--5--5--5--5--5--5--5--5--5--|
--0--0--0--0--0--0--5---------|--------------------------------------|
------------------------------|--------------------------------------|


  |--3--|  |--3--|  |--3--|  |--3--|     |--3--|  |--3--|  |--3--|  |--3--|   
  E  E  E  E  E  E  E  E  E  E  E  E     E  E  E  E  E  E  E  E  E  E  E  E   
--------------------------------------|--------------------------------------|
--------------------------------------|--------------------------------------|
--------------------------------------|--------------------------------------|
--7--7--7--7--7--7--7--7--7--7--7--7--|--4--4--4--4--4--4--4--4--4--4--4--4--|
--------------------------------------|--------------------------------------|
--------------------------------------|--------------------------------------|


  |--3--|  |--3--|  |--3--|  |--3--|     |--3--|  |--3--|  |--3--|  |--3--|   
  E  E  E  E  E  E  E  E  E  E  E  E     E  E  E  E  E  E  E  E  E  E  E  E   
--------------------------------------|--------------------------------------|
--------------------------------------|--------------------------------------|
--------------------------------------|--------------------------------------|
--5--5--5--5--5--5--5--5--5--5--5--5--|--5--5--5--5--5--5--5--5--5--5--5--5--|
--------------------------------------|--------------------------------------|
--------------------------------------|--------------------------------------|


  |--3--|  |--3--|  |--3--|  |--3--|     |--3--|  |--3--|  |--3--|  |---3--|   
  E  E  E  E  E  E  E  E  E  E  E  E     E  E  E  E  E  E  E  E  E  E  E   E   
--------------------------------------|---------------------------------------|
--------------------------------------|---------------------------------------|
--------------------------------------|---------------------------------------|
--7--7--7--7--7--7--7--7--7--7--7--7--|--8--8--8--8--8--8--8--8--8--8--9--11--|
--------------------------------------|---------------------------------------|
--------------------------------------|---------------------------------------|


  |--3--|  |--3--|   |---3---|   |---3---|   
  E  E  E  E  E  E   E   E   E   E   E   E   
--------------------------------------------|
--------------------------------------------|
--------------------------------------------|
--9--9--9--9--9--9--12--12--11--11--11--11--|
--------------------------------------------|
--------------------------------------------|


  |--3--|  |--3--|  |--3--|  |--3--|     |--3--|  |--3--|  |--3--|  |--3--|   
  E  E  E  E  E  E  E  E  E  E  E  E     E  E  E  E  E  E  E  E  E  E  E  E   
--------------------------------------|--------------------------------------|
--------------------------------------|--------------------------------------|
--------------------------------------|--------------------------------------|
--------------------------------------|--------------------------------------|
--------------------------------------|--0--0--0--0--0--0--0--0--0--0--0--0--|
--3--3--3--3--3--3--3--3--3--3--3--3--|--------------------------------------|


  |--3--|  |--3--|  |--3--|  |--3--|     |--3--|  |--3--|  |--3--|  |--3--|   
  E  E  E  E  E  E  E  E  E  E  E  E     E  E  E  E  E  E  E  E  E  E  E  E   
--------------------------------------|--------------------------------------|
--------------------------------------|--------------------------------------|
--------------------------------------|--------------------------------------|
--------------------------------------|--------------------------------------|
--------------------------------------|--------------------------------------|
--2--2--2--2--2--2--2--2--2--2--2--2--|--3--3--3--3--3--3--3--3--3--3--3--3--|


  |--3--|  |--3--|  |--3--|  |--3--|     |--3--|  |--3--|  |--3--|  |--3--|   
  E  E  E  E  E  E  E  E  E  E  E  E     E  E  E  E  E  E  E  E  E  E  E  E   
--------------------------------------|--------------------------------------|
--------------------------------------|--------------------------------------|
--------------------------------------|--------------------------------------|
--------------------------------------|--------------------------------------|
--------------------------------------|--0--0--0--0--0--0--0--0--0--0--0--0--|
--3--3--3--3--3--3--3--3--3--3--3--3--|--------------------------------------|


  |--3--|  |--3--|  |--3--|  |--3--|     |--3--|  |--3--|  |--3--|  |--3--|   
  E  E  E  E  E  E  E  E  E  E  E  E     E  E  E  E  E  E  E  E  E  E  E  E   
--------------------------------------|--------------------------------------|
--------------------------------------|--------------------------------------|
--------------------------------------|--------------------------------------|
--------------------------------------|--------------------------------------|
--1-----1-----1-----1-----1-----1-----|--1-----1-----1-----1-----1-----1-----|
--------------------------------------|--------------------------------------|



(3.12)
                                              |--3--|          --- 
  Q    Q    H           H        E  Q.        E  E  E  Q           
---------------------|---------------------|----------------|-----|
---------------------|---------------------|----------------|-----|
---------------------|---------------------|----------------|-----|
---------------------|---------------------|----------------|-----|
--0----0-------------|-----------3--2------|--0--0--0--0----|-----|
---------------------|---------------------|----------------|-----|

                           (3.19)  'Who are you to walk across the graves....'


                           |--3--|  |--3--|  |--3--|  |--3--|   
  H        H.              E  E  E  E  E  E  E  E  E  E  E  E   
------------------------|--------------------------------------|
------------------------|--------------------------------------|
------------------------|--------------------------------------|
-----------1------------|-----------0-----------------0--------|
------------------------|--2--3--4-----4--3--2--3--4-----4--3--|
------------------------|--------------------------------------|


  |--3--|  |--3--|  |--3--|  |--3--|     |--3--|  |--3--|  |--3--|  |--3--|   
  E  E  E  E  E  E  E  E  E  E  E  E     E  E  E  E  E  E  E  E  E  E  E  E   
--------------------------------------|--------------------------------------|
--------------------------------------|--------------------------------------|
--------------------------------------|--------------------------------------|
-----------0-----------------0--------|-----------0-----------------0--------|
--2--3--4-----4--3--2--3--4-----4--3--|--2--3--4-----4--3--2--3--4-----4--3--|
--------------------------------------|--------------------------------------|


  |--3--|  |--3--|  |--3--|  |--3--|     |--3--|  |--3--|  |--3--|  |--3--|   
  E  E  E  E  E  E  E  E  E  E  E  E     E  E  E  E  E  E  E  E  E  E  E  E   
--------------------------------------|--------------------------------------|
--------------------------------------|--------------------------------------|
--------------------------------------|--------------------------------------|
-----------0-----------------0--------|--------------------------------------|
--2--3--4-----4--3--2--3--4-----4--3--|--3--------3--3--3--3--------3--3--3--|
--------------------------------------|--------------------------------------|


  |--3--|  |--3--|  |--3--|  |--3--|     |--3--|  |--3--|  |--3--|  |--3--|   
  E  E  E  E  E  E  E  E  E  E  E  E     E  E  E  E  E  E  E  E  E  E  E  E   
--------------------------------------|--------------------------------------|
--------------------------------------|--------------------------------------|
--------------------------------------|--------------------------------------|
--3--3--3--2--------3--3--3--2--------|-----------0-----------------0--------|
--------------------------------------|--2--3--4-----4--3--2--3--4-----4--3--|
--------------------------------------|--------------------------------------|


  |--3--|  |--3--|  |--3--|  |--3--|     |--3--|  |--3--|  |--3--|  |--3--|   
  E  E  E  E  E  E  E  E  E  E  E  E     E  E  E  E  E  E  E  E  E  E  E  E   
--------------------------------------|--------------------------------------|
--------------------------------------|--------------------------------------|
--------------------------------------|--------------------------------------|
-----------0-----------------0--------|-----------0-----------------0--------|
--2--3--4-----4--3--2--3--4-----4--3--|--2--3--4-----4--3--2--3--4-----4--3--|
--------------------------------------|--------------------------------------|


  |--3--|  |--3--|  |--3--|  |--3--|     |--3--|  |--3--|  |--3--|  |--3--|   
  E  E  E  E  E  E  E  E  E  E  E  E     E  E  E  E  E  E  E  E  E  E  E  E   
--------------------------------------|--------------------------------------|
--------------------------------------|--------------------------------------|
--------------------------------------|--------------------------------------|
-----------0-----------------0--------|-----------0-----------------0--------|
--2--3--4-----4--3--2--3--4-----4--3--|--2--3--4-----4--3--2--3--4-----4--3--|
--------------------------------------|--------------------------------------|


  |--3--|  |--3--|  |--3--|  |--3--|     |--3--|  |--3--|  |--3--|  |--3--|   
  E  E  E  E  E  E  E  E  E  E  E  E     E  E  E  E  E  E  E  E  E  E  E  E   
--------------------------------------|--------------------------------------|
--------------------------------------|--------------------------------------|
--------------------------------------|--------------------------------------|
-----------0-----------------0--------|--------------------------------------|
--2--3--4-----4--3--2--3--4-----4--3--|--3--------3--3--3--3--------3--3--3--|
--------------------------------------|--------------------------------------|


               (3.41) Osiris?

  ---   ---     |--3--|  |--3--|  |--3--|  |--3--|   
                E  E  E  E  E  E  E  E  E  E  E  E   
-----|-----||---------------------------------------|
-----|-----||---------------------------------------|
-----|-----||*--------------------------------------|
-----|-----||*--------------------------------------|
-----|-----||---------------------------------------|
-----|-----||---0--0--0--0-----------0--0--0--0-----|


  |--3--|  |--3--|  |--3--|  |--3--|     |--3--|  |--3--|  |--3--|  |--3--|   
  E  E  E  E  E  E  E  E  E  E  E  E     E  E  E  E  E  E  E  E  E  E  E  E   
--------------------------------------|--------------------------------------|
--------------------------------------|--------------------------------------|
--------------------------------------|--------------------------------------|
--------------------------------------|--------------------------------------|
--------------------------------------|--------------------------------------|
--0--0--0--0-----------0--0--0--0-----|--0--0--0--0-----------0--0--0--0--0--|

                                            (4.07)
  |--3--|  |--3--|  |--3--|  |--3--|                            
  E  E  E  E  E  E  E  E  E  E  E  E   4x  Q    Q    Q    Q     
---------------------------------------||----------------------|
---------------------------------------||----------------------|
--------------------------------------*||--2-------------------|
--------------------------------------*||-------2----3----0----|
---------------------------------------||----------------------|
--5-----5-----5-----3-----3-----3------||----------------------|


                           Vocals Enter

  Q    Q    E  E  E  E     E  E  E  E  E  E  Q       E  E  Q    E  Q    E   
------------------------|-------------------------|------------------------|
------------------------|-------------------------|------------------------|
------------------------|-------------------------|------------------------|
--2---------0--3--L--0--|-------------------------|----------------3-------|
-------3----------------|-------------------------|-------------5-------5--|
------------------------|--0--0--0--0--0--0--0----|--0--0--0---------------|


                                       |----3----|     
  E  E  E  E  E  E  Q       E  E  Q    Q    Q    Q     
-------------------------|----------------------------|
-------------------------|----------------------------|
-------------------------|----------------------------|
-------------------------|-------------5----3----2----|
-------------------------|----------------------------|
--0--0--0--0--0--0--0----|--0--0--0-------------------|


  E  E  E  E  E  E  E  E     E  E  E  E  E  E  E  E   
--------------------------|--------------------------|
--------------------------|--------------------------|
--------------------------|--------------------------|
--0--0--0--0--0--0--0--0--|--------------------------|
--------------------------|--3--3--3--3--3--3--3--3--|
--------------------------|--------------------------|


  E  E  E  E  E  E  E  E     E  S S E  S S E  E  E  E   
--------------------------|----------------------------|
--------------------------|----------------------------|
--------------------------|----------------------------|
--------------------------|-------------------3--L-----|
--------------------------|--0--0-0-0--0-0-5--------5--|
--3--3--3--3--3--3--3--3--|----------------------------|


  E  E  E  E  E  E  Q       E  E  Q    E  Q    E     E  E  E  E  E  E  Q     
-------------------------|------------------------|-------------------------|
-------------------------|------------------------|-------------------------|
-------------------------|------------------------|-------------------------|
-------------------------|----------------3-------|-------------------------|
-------------------------|-------------5-------5--|-------------------------|
--0--0--0--0--0--0--0----|--0--0--0---------------|--0--0--0--0--0--0--0----|

                                   (4.29)
           |-3-| |----3----|                                
  E  E  E  S S S Q    Q    Q       E  E  E  E  E  E  E  E   
--------------------------------|--------------------------|
--------------------------------|--------------------------|
--------------------------------|--------------------------|
-----------------5----3----2----|--0--0--0--0--0--0--0--0--|
--------------------------------|--------------------------|
--0--0--0--0-0-0----------------|--------------------------|


  E  E  E  E  E  E  E  E     E  E  E  E  E  E  E  E   
--------------------------|--------------------------|
--------------------------|--------------------------|
--------------------------|--------------------------|
--------------------------|--------------------------|
--3--3--3--3--3--3--3--3--|--------------------------|
--------------------------|--3--3--3--3--3--3--3--3--|


  E  E  E  E  E  E  E  E     E  E  E  E  E  Q.      
--------------------------|------------------------|
--------------------------|------------------------|
--2-----------------------|------------------------|
-----2--3--0--2-----0-----|-----0------------------|
-----------------3-----2--|--3-----3--2--0---------|
--------------------------|------------------------|


(4.37) Intro 3.0

  S S S S S S S S S S S S S S S S    S S S S S S S S S S S S S S S S  
----------------------------------|----------------------------------|
----------------------------------|----------------------------------|
----------------------------------|----------------------------------|
------------------------0-2-0-----|------------------2-3-2-0-2-0-----|
--0-0-0-0-0-0-0-0-0-2-3-------3-2-|--0-0-0-0-0-0-0-0-------------3-2-|
----------------------------------|----------------------------------|


  S S S S S S S S S S S S S S S S    H        H         
----------------------------------|--------------------|
----------------------------------|--------------------|
----------------------------------|--------------------|
------------------------0-2-0-----|--5-----------------|
--0-0-0-0-0-0-0-0-0-2-3-------3-2-|-----------7--------|
----------------------------------|--------------------|


  S S S S S S S S S S S S S S S S    S S S S S S S S S S S S S S S S  
----------------------------------|----------------------------------|
----------------------------------|----------------------------------|
----------------------------------|----------------------------------|
------------------------0-2-0-----|------------------2-3-2-0-2-0-----|
--0-0-0-0-0-0-0-0-0-2-3-------3-2-|--0-0-0-0-0-0-0-0-------------3-2-|
----------------------------------|----------------------------------|


  S S S S S S S S S S S S S S S S    H        H         
----------------------------------|--------------------|
----------------------------------|--------------------|
----------------------------------|--------------------|
------------------------0-2-0-----|--5-----------------|
--0-0-0-0-0-0-0-0-0-2-3-------3-2-|-----------7--------|
----------------------------------|--------------------|


  S S S S S S S S S S S S S S S S    S S S S S S S S S S S S S S S S  
----------------------------------|----------------------------------|
----------------------------------|----------------------------------|
----------------------------------|----------------------------------|
------------------------0-2-0-----|------------------2-3-2-0-2-0-----|
--0-0-0-0-0-0-0-0-0-2-3-------3-2-|--0-0-0-0-0-0-0-0-------------3-2-|
----------------------------------|----------------------------------|


  S S S S S S S S S S S S S S S S    H        H         
----------------------------------|--------------------|
----------------------------------|--------------------|
----------------------------------|--------------------|
------------------------0-2-0-----|--5-----------------|
--0-0-0-0-0-0-0-0-0-2-3-------3-2-|-----------7--------|
----------------------------------|--------------------|


  S S S S S S S S S S S S S S S S    S S S S S S S S S S S S S S S S  
----------------------------------|----------------------------------|
----------------------------------|----------------------------------|
----------------------------------|----------------------------------|
------------------------0-2-0-----|------------------2-3-2-0-2-0-----|
--0-0-0-0-0-0-0-0-0-2-3-------3-2-|--0-0-0-0-0-0-0-0-------------3-2-|
----------------------------------|----------------------------------|

                                    (5.01) Outro 

  S S S S S S S S S S S S S S S S    H        H           H.           Q     
----------------------------------|--------------------|--------------------|
----------------------------------|--------------------|--------------------|
----------------------------------|--------------------|--------------------|
------------------------0-2-0-----|--5-----------------|--7-----------------|
--0-0-0-0-0-0-0-0-0-2-3-------3-2-|-----------7--------|---------------7----|
----------------------------------|--------------------|--------------------|


  W                    H.           Q       W                 
-------------------|---------------------|-------------------|
-------------------|---------------------|-------------------|
-------------------|---------------------|-------------------|
-------------------|--10-----------------|--5----------------|
--8----------------|----------------7----|-------------------|
-------------------|---------------------|-------------------|


               |---3---|                                             
  H.           E   E   E      H        H           W                 
---------------------------|--------------------|-------------------|
---------------------------|--------------------|-------------------|
---------------------------|--------------------|-------------------|
--7------------5S--7S--5S--|--4--------0--------|--3----------------|
---------------------------|--------------------|-------------------|
---------------------------|--------------------|-------------------|


  H        Q    Q       H.           Q       W                 
---------------------|--------------------|-------------------|
---------------------|--------------------|-------------------|
---------------------|--------------------|-------------------|
--L--------0----2----|--------------------|-------------------|
---------------------|--0------------7----|--8----------------|
---------------------|--------------------|-------------------|


  H        H           W                   H        H         
--------------------|-------------------|--------------------|
--------------------|-------------------|--------------------|
--------------------|-------------------|--------------------|
-----------2--------|--5----------------|--7--------5--------|
--3-----------------|-------------------|--------------------|
--------------------|-------------------|--------------------|


                                           |----3----|    |----3----|     
  H        H           W                   Q    Q    Q    Q    Q    Q     
--------------------|-------------------|--------------------------------|
--------------------|-------------------|--------------------------------|
--------------------|-------------------|--------------------------------|
--4--------0--------|--3----------------|--3----2----0-------------------|
--------------------|-------------------|-----------------3----2----3----|
--------------------|-------------------|--------------------------------|


(5.28) WAAAITING


  |--3--|  |--3--|  |--3--|  |--3--|     |--3--|  |--3--|  |--3--|  |--3--|   
  E  E  E  E  E  E  E  E  E  E  E  E     E  E  E  E  E  E  E  E  E  E  E  E   
--------------------------------------|--------------------------------------|
--------------------------------------|--------------------------------------|
--------------------------------------|--------------------------------------|
--------------------------------------|--3--3--3--3--3--3--3--3--3--3--3--3--|
--0--0--0--0--0--0--0--0--0--3--3--3--|--------------------------------------|
--------------------------------------|--------------------------------------|


  |--3--|  |--3--|  |--3--|  |--3--|     |--3--|  |--3--|  |--3--|  |--3--|   
  E  E  E  E  E  E  E  E  E  E  E  E     E  E  E  E  E  E  E  E  E  E  E  E   
--------------------------------------|--------------------------------------|
--------------------------------------|--------------------------------------|
--------------------------------------|--------------------------------------|
--------------------------------------|--5--5--5--5--5--5--5--5--5--5--5--5--|
--3--3--3--3--3--3--3--3--3--3--3--3--|--------------------------------------|
--------------------------------------|--------------------------------------|


  |--3--|  |--3--|  |--3--|  |--3--|     |--3--|  |--3--|  |--3--|  |--3--|   
  E  E  E  E  E  E  E  E  E  E  E  E     E  E  E  E  E  E  E  E  E  E  E  E   
--------------------------------------|--------------------------------------|
--------------------------------------|--------------------------------------|
--------------------------------------|--------------------------------------|
--7--7--7--7--7--7--5--5--5--5--5--5--|--4--4--4--4--4--4--0--0--0--0--0--0--|
--------------------------------------|--------------------------------------|
--------------------------------------|--------------------------------------|


  |--3--|  |--3--|  |--3--|  |--3--|     |--3--|  |--3--|  |--3--|  |--3--|   
  E  E  E  E  E  E  E  E  E  E  E  E     E  E  E  E  E  E  E  E  E  E  E  E   
--------------------------------------|--------------------------------------|
--------------------------------------|--------------------------------------|
--------------------------------------|--------------------------------------|
--3--3--3--3--3--3--3--3--3--3--3--3--|--3--3--3--2--2--2--------------------|
--------------------------------------|--------------------3--3--3--2--2--2--|
--------------------------------------|--------------------------------------|


(5.40)

  |--3--|  |--3--|  |--3--|  |--3--|     |--3--|  |--3--|  |--3--|  |--3--|   
  E  E  E  E  E  E  E  E  E  E  E  E     E  E  E  E  E  E  E  E  E  E  E  E   
--------------------------------------|--------------------------------------|
--------------------------------------|--------------------------------------|
--------------------------------------|--------------------------------------|
--------------------------------------|--3--3--3--3--3--3--3--3--3--3--3--3--|
--0--0--0--0--0--0--0--0--0--3--3--3--|--------------------------------------|
--------------------------------------|--------------------------------------|


  |--3--|  |--3--|  |--3--|  |--3--|     |--3--|  |--3--|  |--3--|  |--3--|   
  E  E  E  E  E  E  E  E  E  E  E  E     E  E  E  E  E  E  E  E  E  E  E  E   
--------------------------------------|--------------------------------------|
--------------------------------------|--------------------------------------|
--------------------------------------|--------------------------------------|
--------------------------------------|--5--5--5--5--5--5--5--5--5--5--5--5--|
--3--3--3--3--3--3--3--3--3--3--3--3--|--------------------------------------|
--------------------------------------|--------------------------------------|


  |--3--|  |--3--|  |--3--|  |--3--|     |--3--|  |--3--|  |--3--|  |--3--|   
  E  E  E  E  E  E  E  E  E  E  E  E     E  E  E  E  E  E  E  E  E  E  E  E   
--------------------------------------|--------------------------------------|
--------------------------------------|--------------------------------------|
--------------------------------------|--------------------------------------|
--7--7--7--7--7--7--5--5--5--5--5--5--|--4--4--4--4--4--4--0--0--0--0--0--0--|
--------------------------------------|--------------------------------------|
--------------------------------------|--------------------------------------|


  |--3--|  |--3--|  |--3--|  |--3--|     |--3--|  |--3--|  |--3--|  |--3--|   
  E  E  E  E  E  E  E  E  E  E  E  E     E  E  E  E  E  E  E  E  E  E  E  E   
--------------------------------------|--------------------------------------|
--------------------------------------|--------------------------------------|
--------------------------------------|--------------------------------------|
--3--3--3--3--3--3--3--3--3--3--3--3--|--3--3--3--2--2--2--------------------|
--------------------------------------|--------------------3--3--3--2--2--2--|
--------------------------------------|--------------------------------------|


(5.52)

  |--3--|  |--3--|  |--3--|  |--3--|     |--3--|  |--3--|  |--3--|  |--3--|   
  E  E  E  E  E  E  E  E  E  E  E  E     E  E  E  E  E  E  E  E  E  E  E  E   
--------------------------------------|--------------------------------------|
--------------------------------------|--------------------------------------|
--------------------------------------|--------------------------------------|
--------------------------------------|--------------------------------------|
--0-----0-----0--0--0-----0-----0--0--|--------------------------------------|
--------------------------------------|--1-----1-----1--1--1-----1-----1--1--|


  |--3--|  |--3--|  |--3--|  |--3--|     |--3--|  |--3--|  |--3--|  |--3--|   
  E  E  E  E  E  E  E  E  E  E  E  E     E  E  E  E  E  E  E  E  E  E  E  E   
--------------------------------------|--------------------------------------|
--------------------------------------|--------------------------------------|
--------------------------------------|--------------------------------------|
--------------------------------------|--------------------------------------|
--3-----3-----3--3--3-----3-----3--3--|--------------------------------------|
--------------------------------------|--3-----3-----3--3--3-----3-----3--3--|


  |--3--|  |--3--|  |--3--|  |--3--|     |--3--|  |--3--|  |----3----|     
  E  E  E  E  E  E  E  E  E  E  E  E     E  E  E  E  E  E  Q    Q    Q     
--------------------------------------|-----------------------------------|
--------------------------------------|-----------------------------------|
--------------------------------------|-----------------------------------|
--------------------------------------|-----------------------------------|
--------------------------------------|-------------------------0----3----|
--5-----5--5--5--5--3-----3-----3--3--|--2--2-----2--2--2--1--------------|


  |--3--|  |--3--|  |--3--|  |--3--|     |--3--|  |--3--|  |--3--|  |--3--|   
  E  E  E  E  E  E  E  E  E  E  E  E     E  E  E  E  E  E  E  E  E  E  E  E   
--------------------------------------|--------------------------------------|
--------------------------------------|--------------------------------------|
--------------------------------------|--------------------------------------|
--3--3--3--3--3--3--3--3--3--3--3--3--|--3--3--3--3--3--3--------------------|
--------------------------------------|--------------------3--3--3--2--2--2--|
--------------------------------------|--------------------------------------|


(6.04)

  |--3--|  |--3--|  |--3--|  |--3--|     |--3--|  |--3--|  |--3--|  |--3--|   
  E  E  E  E  E  E  E  E  E  E  E  E     E  E  E  E  E  E  E  E  E  E  E  E   
--------------------------------------|--------------------------------------|
--------------------------------------|--------------------------------------|
--------------------------------------|--------------------------------------|
--------------------------------------|--3--3--3--3--3--3--3--3--3--3--3--3--|
--0--0--0--0--0--0--0--0--0--3--3--3--|--------------------------------------|
--------------------------------------|--------------------------------------|


  |--3--|  |--3--|  |--3--|  |--3--|     |--3--|  |--3--|  |--3--|  |--3--|   
  E  E  E  E  E  E  E  E  E  E  E  E     E  E  E  E  E  E  E  E  E  E  E  E   
--------------------------------------|--------------------------------------|
--------------------------------------|--------------------------------------|
--------------------------------------|--------------------------------------|
--------------------------------------|--5--5--5--5--5--5--5--5--5--5--5--5--|
--3--3--3--3--3--3--3--3--3--3--3--3--|--------------------------------------|
--------------------------------------|--------------------------------------|


                                         rit.                          
  |--3--|  |--3--|  |--3--|  |--3--|     |---3---|  |--3--|            
  E  E  E  E  E  E  E  E  E  E  E  E     E    E  E  E  E  E  H         
--------------------------------------|-------------------------------|
--------------------------------------|-------------------------------|
--------------------------------------|-------------------------------|
--7--7--7--7--7--7--5--5--5--5--5--5--|--4----4--4--4--4--4--0--------|
--------------------------------------|-------------------------------|
--------------------------------------|-------------------------------|


(6.14) - Open...                 wait...                                
  W                   W                   H        H         
-------------------|-------------------|--------------------|
-------------------|-------------------|--------------------|
-------------------|-------------------|--------------------|
-------------------|-------------------|--------------------|
-------------------|-------------------|--5--------7--------|
--1----------------|--L----------------|--------------------|


  W                   W                  
-------------------|-------------------||
-------------------|-------------------||
-------------------|-------------------||
-------------------|-------------------||
--0----------------|--L----------------||
-------------------|-------------------||













                             6. THE SEVEN SACRED PROMISES

(Intro)     (0.01)
             |----3----|    |----3----|                                 
             Q    Q    Q    Q    Q    Q       E.  E.  E  E  S S S S E   
C||-------|--------------------------------|---------------------------|
G||-------|--------------------------------|---------------------------|
D||-------|--------------------------------|---------------------------|
A||-------|--5--------------5--------------|---------------------------|
E||-------|--------------------------------|---------------------------|
B||-------|-------3----3---------3----3----|--3---3---3-----1-1-3-3----|


  E.  E.  E  E  S S S E.     E.  E.  E  E  S S E  E   
--------------------------|--------------------------|
--------------------------|--------------------------|
--------------------------|--------------------------|
--------------------------|--------------------------|
--------------------------|--------------------------|
--3---3---3-----3-3-3-1---|--3---3---3-----1-1-3--3--|


  E.  S E  E  E.  S E  E     E.  E.  E  E  S S S S E     E.  E.  E  Q    Q     
--------------------------|---------------------------|-----------------------|
--------------------------|---------------------------|-----------------------|
--------------------------|---------------------------|-----------------------|
--------------------------|---------------------------|-----------------------|
--------------------------|---------------------------|-------------1----0----|
--3---3-3--3--3---3-3--3--|--3---3---3-----1-1-3-3----|--3---3---3------------|


  E.  E.  E  E  S S Q       E.  S E  E  E.  S E  E   
-------------------------|--------------------------|
-------------------------|--------------------------|
-------------------------|--------------------------|
-------------------------|--------------------------|
--------------------6----|--L---6-6--6--8---8-8--8--|
--3---3---3--L--3-3------|--------------------------|


  E.  E.  E  E  S S S S E     E.  E.  E  Q    Q       E.  E.  E  Q    Q     
---------------------------|-----------------------|-----------------------|
---------------------------|-----------------------|-----------------------|
---------------------------|-----------------------|-----------------------|
---------------------------|-----------------------|-----------------------|
---------------------------|-----------------------|-----------------------|
--3---3---3-----1-1-3-3----|--3---3---3--3----1----|--3---3---3--3----3----|


  S S S S S S S S S S S S S S S S    E.  E.  E  E  S S S E.   
------------------2---------------|--------------------------|
------------2-3-5---5-3-2-0-------|--------------------------|
------2-3-5-----------------3-2-0-|--------------------------|
--3-5-----------------------------|--------------------------|
----------------------------------|--------------------4-4---|
----------------------------------|--3---3---3--L--3-3-------|


  Q.     E  E  E  Q       E  E  E  E  E  E  Q       W                 
-----------------------|-------------------------|-------------------|
-----------------------|-------------------------|-------------------|
-----------------------|-------------------------|-------------------|
-----------------------|-----------------0--1----|--L----------------|
--L------4--4--4--4----|-----------1--L----------|-------------------|
-----------------------|--3--3--3----------------|-------------------|


 (0.31) Verse 1

  S  S S S S S S  S S S S S S S S S    S  S S S S S S  S S S S S S S S S  
------------------------------------|------------------------------------|
------------------------------------|------------------------------------|
------------------------------------|----------------------------2-------|
--2S-4---4-----2S-4---4-----2-4-----|--2S-4---4-----2S-4-----2-4---4-----|
------------------------------------|------------------------------------|
------------------------------------|------------------------------------|


  S  S S S S S S  S S S S S S S S S    S  S S S S S S  S S S S S S S S S  
------------------------------------|------------------------------------|
------------------------------------|------------------------------------|
------------------------------------|----------------------------2-------|
--2S-4---4-----2S-4---4-----2-4-----|--2S-4---4-----2S-4-----2-4---4-----|
------------------------------------|------------------------------------|
------------------------------------|------------------------------------|


  S  S S S S S S  S S S S S S S S S    S  S S S S S S  S S S S S S S S S  
------------------------------------|------------------------------------|
------------------------------------|------------------------------------|
------------------------------------|----------------------------2-------|
--2S-4---4-----2S-4---4-----2-4-----|--2S-4---4-----2S-4-----2-4---4-----|
------------------------------------|------------------------------------|
------------------------------------|------------------------------------|


  S  S S S S S S  S S S S S S S S S    S  S S S S S E  H         
------------------------------------|---------------------------|
------------------------------------|---------------------------|
------------------------------------|---------------------------|
--2S-4---4-----2S-4---4-----2-4-----|--2S-4---4-----2--L--------|
------------------------------------|---------------------------|
------------------------------------|---------------------------|

(0.45)

  S S S S E  S S S S E  S S S S    E  S S S S E  S S S S S S S S  
--------------------------------|--------------------------------|
--------------------------------|--------------------------------|
--------------------------------|--------------------------------|
--2-2-2-4----2-2-4-4----2-2-2-4-|-----2-2-4-4----2-2-2---4-4-4---|
--------------------------------|--------------------------------|
--------------------------------|--------------------------------|


  S S S S E  S S S S E  S S S S    E  S S S S E  S S S S S S S S  
--------------------------------|--------------------------------|
--------------------------------|--------------------------------|
--------------------------------|--------------------------------|
--------0--------0-0----------0-|---------0-0------------0-0-0---|
--4-4-4------4-4--------4-4-4---|-----4-4--------4-4-4-----------|
--------------------------------|--------------------------------|


  S S S S E  S S S S E  S S S S    E  S S S S E  S S S S S S S S  
--------------------------------|--------------------------------|
--------------------------------|--------------------------------|
--------------------------------|--------------------------------|
--------------------------------|--------------------------------|
--0-0-0-2----0-0-2-2----0-0-0-2-|-----0-0-2-2----0-0-0---2-2-2---|
--------------------------------|--------------------------------|


                                                              (0.59) Pre-Chorus 1

  S S S S E  S S S S E  S S S S    E  E  E  E  E  E  E  E     W                 
--------------------------------|--------------------------|-------------------|
--------------------------------|--------------------------|-------------------|
--------------------------------|--------------------------|-------------------|
--------------------------------|-----------2--0-----------|-------------------|
--2-2-2-4----2-2-4-4----2-2-2-4-|--L--4--4--------4--2--0--|--2----------------|
--------------------------------|--------------------------|-------------------|


  W                   W                   W                 
-------------------|-------------------|-------------------|
-------------------|-------------------|-------------------|
-------------------|-------------------|-------------------|
-------------------|-------------------|-------------------|
--L----------------|-------------------|-------------------|
-------------------|--0----------------|--L----------------|


  H        E  E  E  E     E  Q    Q    Q.        E  E  E  E  E  E  E  E   
-----------------------|----------------------|--------------------------|
-----------------------|----------------------|--------------------------|
-----------------9--7--|--L--6----4-----------|--------------------------|
--0--------L--7--------|---------------7------|--------------------------|
-----------------------|----------------------|--3--3--3--3--3--3--3--3--|
-----------------------|----------------------|--------------------------|
 

                            (1.13) Chorus 1

  E  E  E  E  E  E  E  E     E.  E.  E  E  Q    E     E.  E.  E  E  S S S S E   
--------------------------|------------------------|---------------------------|
--------------------------|------------------------|---------------------------|
--------------------------|------------------------|---------------------------|
--0--0--0--0--0--5--4--0--|------------------------|--0---0---0--L--0-0-3-3-0--|
--------------------------|----------------0----3--|---------------------------|
--------------------------|--3---3---3--L----------|---------------------------|


  E.  E.  E  E  S S S S S S    S S S S S S S S S S S S S S S S  
----------------------------|----------------------------------|
----------------------------|----------------------------------|
------------------------0---|----------------------------------|
--1---1---1--L--1-1-0-1---1-|--3-3-3-3-3-3-3-3-3-3-3-3-3-3-3-3-|
----------------------------|----------------------------------|
----------------------------|----------------------------------|


  E.  E.  E  E  Q    E     E.  E.  E  E  S S S S E     E.  E.  E  E  E  E  E   
------------------------|---------------------------|-------------------------|
------------------------|---------------------------|-------------------------|
------------------------|---------------------------|----------3--2-----------|
------------------------|--0---0---0--L--0-0-3-3-0--|--1---1---------3--1--0--|
----------------0----2--|---------------------------|-------------------------|
--3---3---3--L----------|---------------------------|-------------------------|


  E  S E  S E  S S S S E  E     E.  E.  E  E  Q    E   
-----------------------------|------------------------|
-----------------------------|------------------------|
-----------------------------|------------------------|
-----------------------------|------------------------|
--3--3-3--3-3--3-3-3-3-1--0--|----------------0----2--|
-----------------------------|--3---3---3--L----------|


  E.  E.  E  E  S S S S E     E.  E.  E  E  S S S S E   
---------------------------|---------------------------|
---------------------------|---------------------------|
---------------------------|--------------------0-0----|
--0---0---0-----0-0-3-3-0--|--1---1---1--L--1-1-----1--|
---------------------------|---------------------------|
---------------------------|---------------------------|


  S S S S S S S S S S S S S S S S    E.  E.  E  E  E  E  E   
----------------------------------|-------------------------|
----------------------------------|-------------------------|
----------------------------------|-------------------------|
--3-3-3-3-3-3-3-3-3-3-3-3-3-3-3-3-|-------------------------|
----------------------------------|-------------------------|
----------------------------------|--3---3---3--L--3--3--3--|


  E.  E.  E  E  E  E  E     E  E  E  E  E  E  Q       W                 
-------------------------|-------------------------|-------------------|
-------------------------|-------------------------|-------------------|
-------------------------|-----------3--2----------|-------------------|
-------------------0-----|--1--1--1--------3-------|-------------------|
--1---1---1--L--3-----1--|--------------------3----|--L----------------|
-------------------------|-------------------------|-------------------|


(1.41) Verse 2

  S  S S S S S S  S S S S S S S S S    S  S S S S S S  S S S S S S S S S  
------------------------------------|------------------------------------|
------------------------------------|------------------------------------|
------------------------------------|----------------------------2-------|
--2S-4---4-----2S-4---4-----2-4-----|--2S-4---4-----2S-4-----2-4---4-----|
------------------------------------|------------------------------------|
------------------------------------|------------------------------------|


  S  S S S S S S  S S S S S S S S S    S  S S S S S S  S S S S S S S S S  
------------------------------------|------------------------------------|
------------------------------------|------------------------------------|
------------------------------------|----------------------------2-------|
--2S-4---4-----2S-4---4-----2-4-----|--2S-4---4-----2S-4-----2-4---4-----|
------------------------------------|------------------------------------|
------------------------------------|------------------------------------|


  S  S S S S S S  S S S S S S S S S    S  S S S S S S  S S S S S S S S S  
------------------------------------|------------------------------------|
------------------------------------|------------------------------------|
------------------------------------|----------------------------2-------|
--2S-4---4-----2S-4---4-----2-4-----|--2S-4---4-----2S-4-----2-4---4-----|
------------------------------------|------------------------------------|
------------------------------------|------------------------------------|


  S  S S S S S S  S S S S S S S S S    S  S S S S S E  H         
------------------------------------|---------------------------|
------------------------------------|---------------------------|
------------------------------------|---------------------------|
--2S-4---4-----2S-4---4-----2-4-----|--2S-4---4-----2--L--------|
------------------------------------|---------------------------|
------------------------------------|---------------------------|

(1.55)

  S S S S E  S S S S E  S S S S    E  S S S S E  S S S S S S S S  
--------------------------------|--------------------------------|
--------------------------------|--------------------------------|
--------------------------------|--------------------------------|
--2-2-2-4----2-2-4-4----2-2-2-4-|-----2-2-4-4----2-2-2---4-4-4---|
--------------------------------|--------------------------------|
--------------------------------|--------------------------------|


  S S S S E  S S S S E  S S S S    E  S S S S E  S S S S S S S S  
--------------------------------|--------------------------------|
--------------------------------|--------------------------------|
--------------------------------|--------------------------------|
--------0--------0-0----------0-|---------0-0------------0-0-0---|
--4-4-4------4-4--------4-4-4---|-----4-4--------4-4-4-----------|
--------------------------------|--------------------------------|


  S S S S E  S S S S E  S S S S    E  S S S S E  S S S S S S S S  
--------------------------------|--------------------------------|
--------------------------------|--------------------------------|
--------------------------------|--------------------------------|
--------------------------------|--------------------------------|
--0-0-0-2----0-0-2-2----0-0-0-2-|-----0-0-2-2----0-0-0---2-2-2---|
--------------------------------|--------------------------------|


                                                            (2.10) Pre-Chorus 2
  S S S S E  S S S S E  S S S S    E  E  E  E  E  E  E  E     W                 
--------------------------------|--------------------------|-------------------|
--------------------------------|--------------------------|-------------------|
--------------------------------|--------------------------|-------------------|
--------------------------------|-----------2--0-----------|-------------------|
--2-2-2-4----2-2-4-4----2-2-2-4-|--L--4--4--------4--2--0--|--2----------------|
--------------------------------|--------------------------|-------------------|


  E  Q    Q    Q    E     H        E  E  E  E     W                 
-----------------------|-----------------------|-------------------|
-----------------------|-----------------------|-------------------|
----------6----4-------|-----------------------|-------------------|
-----4--------------4--|--2--------L-----2-----|-------------------|
--L--------------------|--------------2--------|-------------------|
-----------------------|--------------------0--|--L----------------|


  H        E  E  E  E     E  Q    Q    Q.        E  E  E  E  E  E  E  E   
-----------------------|----------------------|--------------------------|
-----------------------|----------------------|--------------------------|
-----------------9--7--|--L--6----4-----------|--------------------------|
--0--------L--7--------|---------------7------|--------------------------|
-----------------------|----------------------|--3--3--3--3--3--3--3--3--|
-----------------------|----------------------|--------------------------|


                            (2.23) Chorus 2

  E  E  E  E  E  E  E  E     E.  E.  E  E  Q    E     E.  E.  E  E  S S S S E   
--------------------------|------------------------|---------------------------|
--------------------------|------------------------|---------------------------|
--------------------------|------------------------|---------------------------|
--0--0--0--0--0--5--4--0--|------------------------|--0---0---0--L--0-0-3-3-5--|
--------------------------|----------------0----3--|---------------------------|
--------------------------|--3---3---3--L----------|---------------------------|


  E.  E.  E  E  S S S S E     S S S S S S S S S S S S S S S S  
---------------------------|----------------------------------|
---------------------------|----------------------------------|
---------------------------|----------------------------------|
--1---1---1--L--1-1-3-3-5--|--3-3-3-3-3-3-3-3-3-3-3-3-3-3-3-3-|
---------------------------|----------------------------------|
---------------------------|----------------------------------|


  E.  E.  E  E  Q    E     E.  E.  E  E  S S S S E     E.  E.  E  E  E  E  E   
------------------------|---------------------------|-------------------------|
------------------------|---------------------------|-------------------------|
------------------------|---------------------------|----------3--2-----------|
------------------------|--0---0---0--L--0-0-3-3-0--|--1---1---------3--1--0--|
----------------0----2--|---------------------------|-------------------------|
--3---3---3--L----------|---------------------------|-------------------------|


  E  S E  S E  S S S S E  E     E.  E.  E  E  Q    E   
-----------------------------|------------------------|
-----------------------------|------------------------|
-----------------------------|------------------------|
-----------------------------|------------------------|
--3--3-3--3-3--1-1-1-1-0--0--|----------------0----2--|
-----------------------------|--3---3---3--L----------|


  E.  E.  E  E  S S S S E     E.  E.  E  E  S S S S E   
---------------------------|---------------------------|
---------------------------|---------------------------|
---------------------------|--------------------0-0----|
--0---0---0-----0-0-3-3-5--|--1---1---1--L--1-1-----1--|
---------------------------|---------------------------|
---------------------------|---------------------------|


  S S S S S S S S S S S S S S S S    E.  E.  E  E  E  E  E   
----------------------------------|-------------------------|
----------------------------------|-------------------------|
----------------------------------|-------------------------|
--3-3-3-3-3-3-3-3-3-3-3-3-3-3-3-3-|-------------------------|
----------------------------------|-------------------------|
----------------------------------|--3---3---3--L--3--3--3--|


                                                       (2.49) Bridge

  E.  E.  E  E  E  E  E     E  E  E  E  E  E  E  E     S S S S S S S S S S S S  
-------------------------|--------------------------|--------------------------|
-------------------------|--------------------------|--------------------------|
-------------------------|-----------3--2-----------|--------------------------|
-------------------0-----|--1--1--1--------3--1--0--|--------------------------|
--1---1---1--L--3-----1--|--------------------------|--3-3---2-2---1-1---0-0---|
-------------------------|--------------------------|--------------------------|


  S S S S S S S S S S S S    E  E  E  E   
--------------------------|--------------|
--------------------------|--------------|
--------------------------|--------------|
--------------------------|--------------|
--3-3---2-2---1-1---0-0---|--------------|
--------------------------|--4-----4-----|


    S S S S S S S S S S S S S S S S 12x   S S S S S S E  H         4x
|------------------------------------||----------------------------||
|------------------------------------||----------------------------||
|*----------------------------------*||*--------------------------*||
|*----------------------------------*||*--------------------------*||
|------------------------------------||---0-0-1-1-2-2--------------||
|---3-3---3-3---3-3-3-3---3-3---3-3--||----------------------------||


   S S S S S S S S S S S S S S S S  4x   S S S S S S E  H         4x
------------------------------------||----------------------------||
------------------------------------||----------------------------||
*----------------------------------*||*--------------------------*||
*----------------------------------*||*--------------------------*||
------------------------------------||---0-0-1-1-2-2--------------||
---3-3---3-3---3-3-3-3---3-3---3-3--||----------------------------||


   S S S S S S S S S S S S S S S S  4x   S S S S S S E  H         4x
------------------------------------||----------------------------||
------------------------------------||----------------------------||
*----------------------------------*||*--------------------------*||
*----------------------------------*||*--------------------------*||
------------------------------------||---0-0-1-1-2-2--------------||
---3-3---3-3---3-3-3-3---3-3---3-3--||----------------------------||
   

                                         (3.54)

   S S S S S S S S S S S S S S S S  4x  S S S S S S S S S S S S S S S S  
------------------------------------||----------------------------------|
------------------------------------||----------------------------------|
*----------------------------------*||----------------------------------|
*----------------------------------*||----------------------------------|
------------------------------------||--0-0---0-0---0-0-0-0---0-0---0-0-|
---3-3---3-3---3-3-3-3---3-3---3-3--||----------------------------------|


  S S S S S S S S S S S S S S S S    S S S S S S S S S S S S S S S S  
----------------------------------|----------------------------------|
----------------------------------|----------------------------------|
----------------------------------|----------------------------------|
----------------------------------|----------------------------------|
--0-0---0-0---0-0-0-0---0-0---0-0-|--2-2---2-2---2-2-2-2---2-2---2-2-|
----------------------------------|----------------------------------|


  S S S S S S S S S S S S S S S S    S S S S S S S S S S S S S S S S  
----------------------------------|----------------------------------|
----------------------------------|----------------------------------|
----------------------------------|----------------------------------|
----------------------------------|----------------------------------|
--2-2---2-2---2-2-2-2---2-2---2-2-|----------------------------------|
----------------------------------|--3-3---3-3---3-3-3-3---3-3---3-3-|


  S S S S S S S S S S S S S S S S    S S S S S S S S S S S S S S S S  
----------------------------------|----------------------------------|
----------------------------------|----------------------------------|
----------------------------------|----------------------------------|
----------------------------------|----------------------------------|
----------------------------------|----------------------------------|
--3-3---3-3---3-3-3-3---3-3---3-3-|--0-0---0-0---0-0-0-0---0-0---0-0-|


  S S S S S S S S S S S S S S S S    S S S S S S S S S S S S S S S S  
----------------------------------|----------------------------------|
----------------------------------|----------------------------------|
----------------------------------|----------------------------------|
----------------------------------|----------------------------------|
----------------------------------|--0-0---0-0---0-0-0-0---0-0---0-0-|
--0-0---0-0---0-0-0-0---0-0---0-0-|----------------------------------|


                                      (4.11)

  S S S S S S S S S S S S S S S S    S S S S S S S S S S S S S S S S  
----------------------------------|----------------------------------|
----------------------------------|----------------------------------|
----------------------------------|----------------------------------|
----------------------------------|----------------------------------|
--0-0---0-0---0-0-0-0---0-0---0-0-|--2-2---2-2---2-2-2-2---2-2---2-2-|
----------------------------------|----------------------------------|


  S S S S S S S S S S S S S S S S    S S S S S S S S S S S S S S S S  
----------------------------------|----------------------------------|
----------------------------------|----------------------------------|
----------------------------------|----------------------------------|
----------------------------------|----------------------------------|
--5-5---5-4---4-4-2-2---2-0---0-0-|----------------------------------|
----------------------------------|--3-3---3-3---3-3-3-3---3-3---3-3-|


  S S S S S S S S S S S S S S S S    S S S S S S S S S S S S S S S S  
----------------------------------|----------------------------------|
----------------------------------|----------------------------------|
----------------------------------|----------------------------------|
----------------------------------|----------------------------------|
----------------------------------|--2-2---2-2---2-2-2-2---2-2---2-2-|
--3-3---3-3---3-3-3-3---3-3---3-3-|----------------------------------|

                                   (4.21) 

  S S S S S S S S S S S S E  E     E.  E.  E  E.  E.  E   
--------------------------------|------------------------|
--------------------------------|------------------------|
--------------------------------|------------------------|
--------------------------------|--7---5---6--7---5---6--|
--2-2---2-2---2-2-2-2---2-2-----|------------------------|
--------------------------------|------------------------|


  E.  E.  E  E  E  S E.     E.  E.  E  E.  E.  E   
-------------------------|------------------------|
-------------------------|------------------------|
---------------------5---|------------------------|
--7---5---6--7-----------|--7---5---6--7---5---6--|
-------------------------|------------------------|
-------------------------|------------------------|


  |----3----|    |----3----|       |----3----|    |----3----|     
  Q    Q    Q    Q    Q    Q       Q    Q    Q    Q    Q    Q     
--------------------------------|--------------------------------|
--------------------------------|--------------------------------|
--------------------------------|--------------------------------|
--7-----------------------------|--------------------------------|
--------------------------------|--------------------------------|
-------0----0----0----0----0----|--5----3----4----5----3----4----|


  |----3----|    |----3----|       |----3----|    |----3----|     
  Q    Q    Q    Q    Q    Q       Q    Q    Q    Q    Q    Q     
--------------------------------|--------------------------------|
--------------------------------|--------------------------------|
--------------------------------|--------------------------------|
--------------------------------|--------------------------------|
----------------------3----3----|--------------------------------|
--5----3----4----5--------------|--5----3----4----5----3----4----|


  H.            Q       E.  E.  E  E.  E.  E     E.  E.  E  Q    E  E   
---------------------|------------------------|------------------------|
---------------------|------------------------|------------------------|
---------------------|------------------------|------------------------|
---------------------|------------------------|------------------------|
---------------------|------------------------|------------------3--3--|
--5\-----------------|--5---3---4--5---3---4--|--5---3---4--5----------|


  E.  E.  E  E.  E.  E     H.            Q     
------------------------|---------------------|
------------------------|---------------------|
------------------------|---------------------|
------------------------|---------------------|
------------------------|---------------------|
--5---3---4--5---3---4--|--5\-----------------|


  S S S S S S S S S S S S S S S S    S S S S S S S S S S S S S S S S  
----------------------------------|----------------------------------|
----------------------------------|----------------------------------|
----------------------------------|----------------------------------|
----------------------------------|----------------------------------|
----------------------------------|--------------------------3-3-3-3-|
--5-5-5-3-3-3-4-4-5-5-5-3-3-3-4-4-|--5-5-5-3-3-3-4-4-5-5-5-5---------|


  S S S S S S S S S S S S S S S S    E  E  E  E  E  E  E  E   
----------------------------------|--------------------------|
----------------------------------|--------------------------|
----------------------------------|--------------------------|
----------------------------------|--7--7--7--5--5--5--3--3--|
----------------------------------|--------------------------|
--5-5-5-3-3-3-4-4-5-5-5-3-3-3-4-4-|--------------------------|


  E  E  E  E  Q    Q       H.           E  E     W                 
------------------------|---------------------|-------------------|
------------------------|---------------------|-------------------|
------------------------|------------------3--|--L----------------|
--3--2--2--2--0---------|---------------------|-------------------|
-------------------3----|--1------------L-----|-------------------|
------------------------|---------------------|-------------------|


(4.55) Verse 3

  E.  E.  E  Q.     S S    E.  E.  E  Q.     S S    E.  E.  E  Q.     E   
------------------------|------------------------|-----------------------|
------------------------|------------------------|-----------------------|
------------------------|------------------------|-----------------------|
--4---4---2--L------x-x-|--4---4---2--4----------|--4---4---2--L------x--|
------------------------|--------------------2-4-|-----------------------|
------------------------|------------------------|-----------------------|


  E.  E.  S S H           E.  E.  E  Q.     E     E.  E.  S S H         
-----------------------|-----------------------|-----------------------|
-----------------------|-----------------------|--------------2--------|
--------------2--------|-----------------------|-----------------------|
--4---4---2-4----------|--4---4---2--L------x--|--4---4---2-4----------|
-----------------------|-----------------------|-----------------------|
-----------------------|-----------------------|-----------------------|


  E.  E.  E  H           S S S S E  S S S S E  S S E   
----------------------|-------------------------------|
----------------------|-------------------------------|
----------------------|--4-2--------------------------|
--4---4---2--L--------|------4-2----4-2------------2--|
----------------------|-----------------4-2----2-4----|
----------------------|-------------------------------|


(5.11)

  S S S S E  S S S S E  S S S S    E  S S S S E  S S S S S S S S  
--------------------------------|--------------------------------|
--------------------------------|--------------------------------|
--------------------------------|--------------------------------|
--2-2-2-4----2-2-4-4----2-2-2-4-|-----2-2-4-4----2-2-2---4-4-4---|
--------------------------------|--------------------------------|
--------------------------------|--------------------------------|


  S S S S E  S S S S E  S S S S    E  S S S S E  S S S S S S S S  
--------------------------------|--------------------------------|
--------------------------------|--------------------------------|
--------------------------------|--------------------------------|
--2-2-2-4----2-2-4-4----2-2-2-4-|-----2-2-4-4----2-2-2---4-4-4---|
--------------------------------|--------------------------------|
--------------------------------|--------------------------------|


  S S S S E  S S S S E  S S S S    E  S S S S E  S S S S S S S S  
--------------------------------|--------------------------------|
--------------------------------|--------------------------------|
--------------------------------|--------------------------------|
--------0--------0-0----------0-|-----------0------------0-0-0---|
--4-4-4------4-4--------4-4-4---|-----4-4-4------4-4-4-----------|
--------------------------------|--------------------------------|


  |--3--|  |--3--|  |--3--|  |--3--|     |--3--|     |-3-|                  
  E  E  E  E  E  E  E  E  E  E  E  E     E  E  E  E  S S S S S S S S S S S  
--------------------------------------|------------------------------------|
--------------------------------------|------------------------------------|
--------------------------------------|------------------------------------|
--------------------------------------|--------------------2---2-3-4-2-----|
--0--0--0--2--------0--0--0--2--------|--2--2--2--4--2-3-4---4---------4-0-|
--------------------------------------|------------------------------------|


(5.25) Pre-Chorus 3

  H        E  E  E  E     E  Q    Q    E  E  E     H        E  E  E  E   
-----------------------|------------------------|-----------------------|
-----------------------|------------------------|-----------------------|
-----------------6--4--|--L--3----1-------3-----|-----------------------|
--------------4--------|---------------4-----4--|--2--------L-----2-----|
--2--------L-----------|------------------------|--------------2--------|
-----------------------|------------------------|--------------------0--|


  W                   H        E  E  E  E     E  Q    Q    Q.      
-------------------|-----------------------|----------------------|
-------------------|-----------------------|----------------------|
-------------------|-----------------9--7--|--L--6----4-----------|
-------------------|--0--------L--7--------|---------------7------|
-------------------|-----------------------|----------------------|
--L----------------|-----------------------|----------------------|

                                                      (5.40) Chorus 3          

  E  E  E  E  E  E  E  E     E  E  E  E  E  E  Q       E.  E.  E  E  Q    E   
--------------------------|-------------------------|------------------------|
--------------------------|-------------------------|------------------------|
--------------------------|-------------------------|------------------------|
--------------------------|--0--0-------------------|------------------------|
--3--3--3--3--3--3--3--3--|-------------------------|----------------0----3--|
--------------------------|-----------3-----2-------|--3---3---3--L----------|


  E.  E.  E  E  S S S S E     E.  E.  E  E  S S S S E   
---------------------------|---------------------------|
---------------------------|---------------------------|
---------------------------|---------------------------|
--0---0---0--L--0-0-3-3-5--|--1---1---1--L--1-1-3-3-5--|
---------------------------|---------------------------|
---------------------------|---------------------------|


  S S S S S S S S S S S S S S S S    E.  E.  E  E  Q    E   
----------------------------------|------------------------|
----------------------------------|------------------------|
----------------------------------|------------------------|
--3-3-3-3-3-3-3-3-3-3-3-3-3-3-3-3-|------------------------|
----------------------------------|----------------0----2--|
----------------------------------|--3---3---3--L----------|


  E.  E.  E  E  S S S S E     E.  E.  E  E  E  E  E   
---------------------------|-------------------------|
---------------------------|-------------------------|
---------------------------|----------3--2-----------|
--0---0---0--L--0-0-3-3-0--|--1---1---------3--1--0--|
---------------------------|-------------------------|
---------------------------|-------------------------|


  E  S E  S E  S S S S E  E     E.  E.  E  E  Q    E   
-----------------------------|------------------------|
-----------------------------|------------------------|
-----------------------------|------------------------|
-----------------------------|------------------------|
--3--3-3--3-3--1-1-1-1-0--0--|----------------0----2--|
-----------------------------|--3---3---3--L----------|


  E.  E.  E  E  S S S S E     E.  E.  E  E  S S S S E   
---------------------------|---------------------------|
---------------------------|---------------------------|
---------------------------|--------------------0-0----|
--0---0---0-----0-0-3-3-0--|--1---1---1--L--1-1-----1--|
---------------------------|---------------------------|
---------------------------|---------------------------|


  S S S S S S S S S S S S S S S S    E.  E.  E  E  E  E  E   
----------------------------------|-------------------------|
----------------------------------|-------------------------|
----------------------------------|-------------------------|
--3-3-3-3-3-3-3-3-3-3-3-3-3-3-3-3-|-------------------------|
----------------------------------|----------------0--1--3--|
----------------------------------|--3---3---3--L-----------|


  E.  E.  E  E  E  Q       E  E  E  E  E  E  E  E     E  E  E  E  E  E  E  E   
------------------------|--------------------------|--------------------------|
------------------------|--------------------------|--------------------------|
------------------------|-----------3--2-----------|--------------------------|
--0---0---0--L--0--3----|--1--1--1--------3--1--0--|--------0--0--1--1--3--3--|
------------------------|--------------------------|--3--3--------------------|
------------------------|--------------------------|--------------------------|

(6.08) Outro

  S S S S S S S S S S S S S S S S    S S S S S S S S S S S S S S S S  
----------------------------------|----------------------------------|
----------------------------------|----------------------------------|
----------------------------------|----------------------------------|
--5-5-5-5-5-5-5-5-5-5-5-5-5-5-5-5-|--0-0-0-0-0-0-0-0-0-0-0-0-0-0-0-0-|
----------------------------------|----------------------------------|
----------------------------------|----------------------------------|


  S S S S S S S S S S S S S S S S    S S S S S S S S S S S S S S S S  
----------------------------------|----------------------------------|
----------------------------------|----------------------------------|
----------------------------------|----------------------------------|
--1-1-1-1-1-1-1-1-1-1-1-1-1-1-1-1-|--3-3-3-3-3-3-3-3-3-3-3-3-3-3-3-3-|
----------------------------------|----------------------------------|
----------------------------------|----------------------------------|


  S S S S S S S S S S S S S S S S    S S S S S S S S S S S S S S S S  
----------------------------------|----------------------------------|
----------------------------------|----------------------------------|
----------------------------------|----------------------------------|
----------------------------------|----------------------------------|
----------------------------------|--0-0-0-0-0-0-0-0-0-0-0-0-0-0-0-0-|
--3-3-3-3-3-3-3-3-3-3-3-3-3-3-3-3-|----------------------------------|


  S S S S S S S S S S S S S S S S    S S S S S S S S S S S S S S S S  
----------------------------------|------------------2---------------|
----------------------------------|------------2-3-5---5-3-2---------|
----------------------------------|------2-3-5---------------5-3-2---|
----------------------------------|--3-5---------------------------5-|
--1-1-1-1-1-1-1-1-1-1-1-1-1-1-1-1-|----------------------------------|
----------------------------------|----------------------------------|


  S S S S S S S S S S S S S S S S    Q    Q    H          
------------------2---------------|---------------------||
------------2-3-5---5-3-2---------|---------------------||
------2-3-5---------------5-3-2-1-|--0------------------||
--3-5-----------------------------|---------------------||
----------------------------------|---------------------||
----------------------------------|---------------------||








                       7. BACK TO THE MAGIC OF CHILDHOOD

(There was already a tab of this up, so I didn't tab it out. I won't steal it for this either, so I'll do 
it myself later. Check back in a bit!)



                          8. IN BRILLIANT WHITE LIGHT

                                   (Tacet)


                            9. AEGEAN SHORES

                               

(0.00) Intro                                       (0.05)
                             H         H            E  E  E  E  E  E  S S S S  
C||-------|-------|-------|----------------------|----------------------------|
G||-------|-------|-------|----------------------|----------------------------|
D||-------|-------|-------|----------------------|----------------------------|
A||-------|-------|-------|----------------------|----------------------------|
E||-------|-------|-------|-----------15\--------|--0--0--0--0--0--0--0-0-0-0-|
B||-------|-------|-------|----------------------|----------------------------|


  E  E  E  E  E  E  S S S S    E  E  E  E  E  E  S S S S  
----------------------------|----------------------------|
----------------------------|----------------------------|
----------------------------|----------------------------|
----------------------------|----------------------------|
--0--0--0--0--0--0--0-0-0-0-|--0--0--0--0--0--0--0-0-0-0-|
----------------------------|----------------------------|



  E  E  E  E  E  E  S S S S    Q    E  E  Q    E  E     Q    E  E  Q    E  E   
----------------------------|------------------------|------------------------|
----------------------------|------------------------|------------------------|
----------------------------|------------------------|------------------------|
----------------------------|------------------------|------------------------|
--0--0--0--0--0--0--0-0-0-0-|--0----0--0--0----0--0--|--0----0--0--0----0--0--|
----------------------------|------------------------|------------------------|


  Q    E  E  Q    E  E     Q    E  E  Q    E  E     Q    E  E  Q    E  E   
------------------------|------------------------|------------------------|
------------------------|------------------------|------------------------|
------------------------|------------------------|------------------------|
------------------------|------------------------|------------------------|
--0----0--0--0----0--0--|--0----0--0--0----0--0--|--0----0--0--0----0--0--|
------------------------|------------------------|------------------------|


  Q    E  E  E  E  E  E     Q    E  E  Q    E  E     Q    E  E  E  E  E  E   
-------------------------|------------------------|-------------------------|
-------------------------|------------------------|-------------------------|
-------------------------|------------------------|-------------------------|
-------------5--7--------|------------------------|-------------5--7--------|
--0----0--0--------0--0--|--0----0--0--0----0--0--|--0----0--0--------0--0--|
-------------------------|------------------------|-------------------------|


(0.22)

  Q    E  E  Q    E  E     Q    E  E  Q    E  E     Q    E  E  Q    E  E   
------------------------|------------------------|------------------------|
------------------------|------------------------|------------------------|
------------------------|------------------------|------------------------|
------------------------|------------------------|------------------------|
--0----0--0--0----0--0--|------------------------|------------------------|
------------------------|--3----3--3--0----0--0--|--1----1--1--1----1--1--|


  Q    E  E  Q    E  E     Q    E  E  Q    E  E     Q    E  E  Q    Q     
------------------------|------------------------|-----------------------|
------------------------|------------------------|-----------------------|
------------------------|------------------------|-----------------------|
------------------------|------------------------|-----------------------|
------------------------|--0----0--0--0----0--0--|--0----0--0--0----2----|
--1----1--1--1----1--3--|------------------------|-----------------------|


                                                   (0.33)

  Q    E  E  Q    E  E     Q    E  E  E  E  E  E     E  E  E  E  E  E  E  E   
------------------------|-------------------------|--------------------------|
------------------------|-------------------------|--------------------------|
------------------------|-------------------------|--------------------------|
------------------------|----------------------0--|--L--0--0--0--0--0--0--0--|
--3----3--3--3----3--3--|--3----3--3--3--3--3-----|--------------------------|
------------------------|-------------------------|--------------------------|


  E  E  E  E  E  E  E  E     E  E  E  E  E  E  E  E   
--------------------------|--------------------------|
--------------------------|--------------------------|
--------------------------|--------------------------|
--0--0--0--0--0--0--0--6--|--L--6--6--6--6--6--6--6--|
--------------------------|--------------------------|
--------------------------|--------------------------|


  E  E  E  E  E  E  E  E     E  E  E  E  E  E  E  E   
--------------------------|--------------------------|
--------------------------|--------------------------|
-----8--7-----5-----------|--------------------------|
--6--------8-----6--3--0--|--L--0--0--0--0--0--0--0--|
--------------------------|--------------------------|
--------------------------|--------------------------|


  E  E  E  E  E  E  E  E     E  E  E  E  E  E  E  E   
--------------------------|--------------------------|
--------------------------|--------------------------|
--------------------------|--------------------------|
--0--0--0--0--0--0--0-----|--------------------------|
--------------------------|--------------------------|
-----------------------4--|--L--4--4--4--4--4--4--4--|
                          
                           (0.44) Verse 1

  E  E  E  E  E  E  E  E     Q    E  E  Q    E  E     Q    E  E  E  E  E  E   
--------------------------|------------------------|-------------------------|
--------------------------|------------------------|-------------------------|
--------------------------|------------------------|-------------------------|
--------------------------|------------------------|-------------------------|
--------------------3--0--|--0----0--0--0----0--0--|--0----0--0--0--------3--|
--4--4--4--4--4--4--------|------------------------|----------------0--3-----|


  Q    E  E  Q    E  E     Q    E  E  E  E  E  E     Q    E  E  Q    E  E   
------------------------|-------------------------|------------------------|
------------------------|-------------------------|------------------------|
------------------------|-------------------------|------------------------|
------------------------|-------------------------|------------------------|
--0----0--0--0----0--0--|-------0--0--0--------3--|--0----0--0--0----0--0--|
------------------------|----------------0--3-----|------------------------|


  Q    E  E  E  E  E  E     Q    E  E  Q    E  E     Q    E  E  E  E  E  E   
-------------------------|------------------------|-------------------------|
-------------------------|------------------------|-------------------------|
-------------------------|------------------------|-------------------------|
-------------------------|------------------------|-------------------------|
-------0--0--0--------3--|--0----0--0--0----0--0--|-------0--0--0--------3--|
----------------0--3-----|------------------------|----------------0--3-----|


  Q    E  E  Q    E  E     Q    E  E  Q    E  E     Q    E  E  Q    E  E   
------------------------|------------------------|------------------------|
------------------------|------------------------|------------------------|
------------------------|------------------------|------------------------|
------------------------|------------------------|------------------------|
--0----0--0--0----0--0--|------------------------|------------------------|
------------------------|--3----3--3--0----0--0--|--1----1--1--1----1--1--|


  Q    E  E  E  E  E  E     Q    E  E  Q    E  E     E  E  E  E  Q    E  E   
-------------------------|------------------------|-------------------------|
-------------------------|------------------------|-------------------------|
-------------------------|------------------------|-------------------------|
-------------------------|------------------------|-------------------------|
-------------------------|--0----0--0--0----0--0--|--0--0--0--0--2----2--2--|
-------1--1--1--0--1--3--|------------------------|-------------------------|


                                                 (1.05) 

  Q    E  E  Q    E  E     Q    Q    Q    E  E     E  E  E  E  E  E  E  E   
------------------------|-----------------------|--------------------------|
------------------------|-----------------------|--------------------------|
------------------------|-----------------------|--------------------------|
------------------------|--------------------0--|--L--0--0--0--0--0--0--0--|
--3----3--3--3----3--3--|--3----3----3----L-----|--------------------------|
------------------------|-----------------------|--------------------------|


  E  E  E  E  E  E  E  E     E  E  E  E  E  E  E  E   
--------------------------|--------------------------|
--------------------------|--------------------------|
--------------------------|--------------------------|
--0--0--0--0--0--0--0--6--|--L--6--6--6--6--6--6--6--|
--------------------------|--------------------------|
--------------------------|--------------------------|


  E  E  E  E  E  E  E  E     E  E  E  E  E  E  E  E   
--------------------------|--------------------------|
--------------------------|--------------------------|
--------------------------|--------------------------|
--6--6--6--6--6--6--6--0--|--L--0--0--0--0--0--0--0--|
--------------------------|--------------------------|
--------------------------|--------------------------|


  E  E  E  E  E  E  E  E     E  E  E  E  E  E  E  E   
--------------------------|--------------------------|
--------------------------|--------------------------|
--------------------------|--------------------------|
--0--0--0--0--0--0--0--6--|--L--6--6--6--6--6--6--6--|
--------------------------|--------------------------|
--------------------------|--------------------------|

                           (1.16) Pre-Chorus 1
                  
  E  E  E  E  E  E  E  E     E  E  E  E  E  E  E  E   
--------------------------|--------------------------|
--------------------------|--------------------------|
--------------------------|--------------------------|
--6--6--6--6--6--6--6--6--|--4--4--4--4--4--4--4--4--|
--------------------------|--------------------------|
--------------------------|--------------------------|


  E  E  E  E  E  E  E  E     E  E  E  E  E  E  E  E     E  E  H.            
--------------------------|--------------------------|---------------------|
--------------------------|--------------------------|---------------------|
--------------------------|--------------------------|--5------------------|
--0--0--0--0--0--0--0--0--|--4--4--4--4--4--4--4--4--|---------------------|
--------------------------|--------------------------|---------------------|
--------------------------|--------------------------|---------------------|


(1.22) Dat Riff 1

  E  E  E  E  S S E  E  E     E  E  E  E  E  Q.      
---------------------------|------------------------|
---------------------------|------------------------|
---------------------------|------------------------|
---------------------------|------------------------|
--2--0--2--0--2-2-0--2--0--|--2--0--2--0--2--3------|
---------------------------|------------------------|


  E  E  E  E  S S E  E  E     E  E  E  E  E  Q.      
---------------------------|------------------------|
---------------------------|------------------------|
---------------------------|------------------------|
---------------------------|------------------------|
--2--0--2--0--2-2-0--2--0--|--2--0--2--0--2--0------|
---------------------------|------------------------|


  E  E  E  E  S S E  E  E     E  E  E  E  E  Q.      
---------------------------|------------------------|
---------------------------|------------------------|
---------------------------|------------------------|
---------------------------|------------------------|
--2--0--2--0--2-2-0--2--0--|--2--0--2--0--2--3------|
---------------------------|------------------------|


  E  E  E  E  S S E  E  E     E  E  E  E  E  E  E  E   
---------------------------|--------------------------|
---------------------------|--------------------------|
---------------------------|--------------------------|
---------------------------|--------------------------|
--2--0--2--0--2-2-0--2--0--|--2--2--0--2--L--2--0--0--|
---------------------------|--------------------------|



(1.33) Chorus 1

  E  E  E  E  E  E  E  E     E  E  E  E  E  E  E  E   
--------------------------|--------------------------|
--------------------------|--------------------------|
--------------------------|--------------------------|
--5--5--5--5--5--5--5--5--|--5--5--5--5--3--3--3--3--|
--------------------------|--------------------------|
--------------------------|--------------------------|


  E  E  E  E  E  E  E  E     E  E  E  E  E  E  E  E   
--------------------------|--------------------------|
--------------------------|--------------------------|
--------------------------|--------------------------|
--1--1--1--1--1--1--1--1--|--1--1--1--1--0--0--0--0--|
--------------------------|--------------------------|
--------------------------|--------------------------|


  E  E  E  E  E  E  E  E     E  E  E  E  E  E  E  E     Q    E  E  Q    E  E   
--------------------------|--------------------------|------------------------|
--------------------------|--------------------------|------------------------|
--------------------------|--------------------------|------------------------|
--------------------------|--------------------------|------------------------|
--3--3--3--3--3--3--3--3--|--3--3--3--3--1--1--1--1--|------------------------|
--------------------------|--------------------------|--4----4--4--4----4--4--|


  Q    E  E  E  E  E  E     E  E  E  E  E  E  E  E     E  E  E  E  E  E  E  E   
-------------------------|--------------------------|--------------------------|
-------------------------|--------------------------|--------------------------|
-------------------------|--------------------------|--------------------------|
-------------------------|--------------------------|-----------------------0--|
-------------------3-----|--------------------------|-----------------0--1-----|
--4----4--4--4--6-----4--|--3--3--3--3--3--3--3--3--|--3--3--3--3--3-----------|


  E  E  E  E  E  E  E  E     E  E  E  E  E  E  E  E   
--------------------------|--------------------------|
--------------------------|--------------------------|
--------------------------|--------------------------|
--1--1--1--1--1--1--1--1--|--1--1--1--1--1--3--1--0--|
--------------------------|--------------------------|
--------------------------|--------------------------|


  E  S S E  E  E  E  E  S S    E  E  E  E  E  E  E  E   
----------------------------|--------------------------|
----------------------------|--------------------------|
----------------------------|--------------------------|
----------------------------|--------------1--0--------|
--3--3-3-3--3--3--3--3--3-3-|--3--3--3--3--------3--1--|
----------------------------|--------------------------|


  Q    E  E  Q    E  E     Q    E  E     E  E  E  E  E  E  E  E   
------------------------|-------------|--------------------------|
------------------------|-------------|--------------------------|
------------------------|-------------|--------------------------|
------------------------|-------------|--------------------------|
------------------------|-------------|--0--0--0--0--0--0--0--0--|
--4----4--4--4----4--4--|--4----4--4--|--------------------------|


                            (1.57) Verse 2

  E  E  E  E  E  E  E  E     E  E  E  E  E  E  E  E   
--------------------------|--------------------------|
--------------------------|--------------------------|
--------------------------|--------------------------|
--------------------------|--------------------------|
--0--0--0--0--0-----------|--------------------------|
-----------------0--3--0--|--3--5--5--3--5--5--5--5--|


  E  E  E  E  E  E  E  E     E  E  E  E  E  E  E  E   
--------------------------|--------------------------|
--------------------------|--------------------------|
--------------------------|--------------------------|
--------------------------|--------------------------|
--------------------------|--------------------------|
--5--5--5--5--5--0--3--0--|--5--5--5--5--5--5--5--5--|


  E  E  E  E  E  E  E  E     E  E  E  E  E  E  E  E   
--------------------------|--------------------------|
--------------------------|--------------------------|
--------------------------|--------------------------|
--------------------------|--------------------------|
--------------------------|--------------------------|
--5--5--5--5--5--0--3--0--|--5--5--5--5--5--5--5--5--|


  E  E  E  E  E  E  E  E     E  E  E  E  E  E  E  E   
--------------------------|--------------------------|
--------------------------|--------------------------|
--------------------------|--------------------------|
--------------------------|--------------------------|
--------------------------|--------------------------|
--5--5--5--5--5--0--3--0--|--5--5--5--5--5--5--5--5--|


  E  E  E  E  E  E  E  E     E  E  E  E  E  E  E  E   
--------------------------|--------------------------|
--------------------------|--------------------------|
--------------------------|--------------------------|
--------------------------|--------------------------|
--3-----3-----3-----------|--------------------------|
-----5-----5-----5--3--0--|--5--5--5--5--5--5--5--5--|


  E  E  E  E  E  E  E  E     E  E  E  E  E  E  E  E   
--------------------------|--------------------------|
--------------------------|--------------------------|
--------------------------|--------------------------|
--------------------------|--------------------------|
--------------------------|--------------------------|
--3--3--3--3--0--0--0--0--|--1--1--1--1--1--1--1--1--|


  E  E  E  E  E  E  E  E     E  E  E  E  E  E  E  E   
--------------------------|--------------------------|
--------------------------|--------------------------|
--------------------------|--------------------------|
--------------------------|--------------------------|
--------------------------|--0--0--0--0--0--0--0--0--|
--1--1--1--1--1--0--1--3--|--------------------------|


  E  E  E  E  E  E  E  E     E  E  E  E  E  E  E  E   
--------------------------|--------------------------|
--------------------------|--------------------------|
--------------------------|--------------------------|
--------------------------|--------------------------|
--0--0--0--0--2--2--2--2--|--3--3--3--3--3--3--3--3--|
--------------------------|--------------------------|
 
 
                           (2.19)                            
 
  E  E  E  E  E  E  E  E     E  E  E  E  E  E  E  E   
--------------------------|--------------------------|
--------------------------|--------------------------|
--------------------------|--------------------------|
-----------------------0--|--L--0--0--0--0--0--0--0--|
--3--3--3--3--3--3--3-----|--------------------------|
--------------------------|--------------------------|


  E  E  E  E  E  E  E  E     E  E  E  E  E  E  E  E   
--------------------------|--------------------------|
--------------------------|--------------------------|
--------------------------|--------------------------|
--0--0--0--0--0--0--0--6--|--L--6--6--6--6--6--6--6--|
--------------------------|--------------------------|
--------------------------|--------------------------|


  E  E  E  E  E  E  E  E     E  E  E  E  E  E  E  E   
--------------------------|--------------------------|
--------------------------|--------------------------|
--------------------------|--------------------------|
--6--6--6--6--6--6--6--0--|--L--0--0--0--0--0--0--0--|
--------------------------|--------------------------|
--------------------------|--------------------------|


  E  E  E  E  E  E  E  E     E  E  E  E  E  E  E  E   
--------------------------|--------------------------|
--------------------------|--------------------------|
--------------------------|--------------------------|
--0--0--0--0--0--0--0-----|--------------------------|
--------------------------|--------------------------|
-----------------------4--|--L--4--4--4--4--4--4--4--|

                            (2.30) Pre-Chorus 2

  E  E  E  E  E  E  E  E     E  E  E  E  E  E  E  E   
--------------------------|--------------------------|
--------------------------|--------------------------|
--------------------------|--------------------------|
--------------------------|--4--4--4--4--4--4--4--4--|
--------------------------|--------------------------|
--4--4--4--4--4--4--4--4--|--------------------------|


  E  E  E  E  E  E  E  E     E  E  E  E  E  E  E  E     Q    Q    Q    Q     
--------------------------|--------------------------|----------------------|
--------------------------|--------------------------|----------------------|
--------------------------|--------------------------|----------------------|
--0--0--0--0--0--0--0--0--|--4--4--4--4--4--4--4--4--|----------------------|
--------------------------|--------------------------|--3----3----3----3----|
--------------------------|--------------------------|----------------------|


  E  E  E  E  E  E  E  E     E  E  E  E  E  E  E  E   
--------------------------|--------------------------|
--------------------------|--------------------------|
--------------------------|--------------------------|
--4--4--4--4--4--4--4--4--|--0--0--0--0--0--0--0--0--|
--------------------------|--------------------------|
--------------------------|--------------------------|


  E  E  E  E  E  E  E  E     E  E  E  E  E  E  E  E   
--------------------------|--------------------------|
--------------------------|--------------------------|
--------------------------|--5-----5-----5-----5-----|
--4--4--4--4--4--4--4--4--|--------------------------|
--------------------------|--------------------------|
--------------------------|--------------------------|


(2.41) Dat Riff 2

  E  E  E  E  S S E  E  E     E  E  E  E  E  Q.      
---------------------------|------------------------|
---------------------------|------------------------|
---------------------------|------------------------|
---------------------------|------------------------|
--2--0--2--0--2-2-0--2--0--|--2--0--2--0--2--3------|
---------------------------|------------------------|


  E  E  E  E  S S E  E  E     E  E  E  E  E  Q.      
---------------------------|------------------------|
---------------------------|------------------------|
---------------------------|------------------------|
---------------------------|------------------------|
--2--0--2--0--2-2-0--2--0--|--2--0--2--0--2--0------|
---------------------------|------------------------|


  E  E  E  E  S S E  E  E     E  E  E  E  E  Q.      
---------------------------|------------------------|
---------------------------|------------------------|
---------------------------|------------------------|
---------------------------|------------------------|
--2--0--2--0--2-2-0--2--0--|--2--0--2--0--2--3------|
---------------------------|------------------------|


  E  E  E  E  S S E  E  E     E  E  E  E  E  E  E  E   
---------------------------|--------------------------|
---------------------------|--------------------------|
---------------------------|--------------------------|
---------------------------|--------------------------|
--2--0--2--0--2-2-0--2--0--|--2--2--0--2--L--2--0--0--|
---------------------------|--------------------------|


(2.52) Chorus 2

  E  E  E  E  E  E  E  E     E  E  E  E  E  E  E  E   
--------------------------|--------------------------|
--------------------------|--------------------------|
--------------------------|--------------------------|
--5--5--5--5--5--5--5--5--|--5--5--5--5--3--3--3--3--|
--------------------------|--------------------------|
--------------------------|--------------------------|


  E  E  E  E  E  E  E  E     E  E  E  E  E  E  E  E   
--------------------------|--------------------------|
--------------------------|--------------------------|
--------------------------|--------------------------|
--1--1--1--1--1--1--1--1--|--1--1--1--1--0--0--0--0--|
--------------------------|--------------------------|
--------------------------|--------------------------|


  E  E  E  E  E  E  E  E     E  E  E  E  E  E  E  E     Q    E  E  Q    E  E   
--------------------------|--------------------------|------------------------|
--------------------------|--------------------------|------------------------|
--------------------------|--------------------------|------------------------|
--------------------------|--------------------------|------------------------|
--3--3--3--3--3--3--3--3--|--3--3--3--3--1--1--1--1--|------------------------|
--------------------------|--------------------------|--4----4--4--4----4--4--|


  Q    E  E  E  E  E  E     E  E  E  E  E  E  E  E     E  E  E  E  E  E  E  E   
-------------------------|--------------------------|--------------------------|
-------------------------|--------------------------|--------------------------|
-------------------------|--------------------------|--------------------------|
-------------------------|--------------------------|-----------------------0--|
-------------3--3--------|--------------------------|-----------------0--1-----|
--4----4--4--------4--4--|--3--3--3--3--3--3--3--3--|--3--3--3--3--3-----------|


  E  E  E  E  E  E  E  E     E  E  E  E  E  E  E  E   
--------------------------|--------------------------|
--------------------------|--------------------------|
--------------------------|--------------------------|
--1--1--1--1--1--1--1--1--|--1--1--1--1--1--3--1--0--|
--------------------------|--------------------------|
--------------------------|--------------------------|


  E  E  E  E  E  E  E  E     E  E  E  E  E  E  E  E     Q    E  E  Q    E  E   
--------------------------|--------------------------|------------------------|
--------------------------|--------------------------|------------------------|
--------------------------|--------------------------|------------------------|
--------------------------|--------------------------|------------------------|
--3--3--3--3--3--3--3--3--|--3--3--3--3--1--1--1--1--|------------------------|
--------------------------|--------------------------|--4----4--4--4----4--4--|

              (3.14) Bridge               

  Q    E  E                               Q    Q    E  E  E  E   
-------------|-----|-----|-----|-----||-------------------------|
-------------|-----|-----|-----|-----||-------------------------|
-------------|-----|-----|-----|-----||*-------7-------------7--|
-------------|-----|-----|-----|-----||*--8------------8--------|
-------------|-----|-----|-----|-----||-------------------------|
--4----4--4--|-----|-----|-----|-----||-------------------------|


  S S S S E  E  S S S S S S S S    Q    Q    E  E  E  E   
--------------------------------|------------------------|
--------------------------------|------------------------|
----------7-------------7-7-7-7-|-------8-------------8--|
--8-8-8-8-------8-8-8-8---------|--9------------9--------|
--------------------------------|------------------------|
--------------------------------|------------------------|
 
                                  (3.32) Riff down an octave

  S S S S E  E  S S S S S S S S       Q    Q    E  E  E  E   
---------------------------------||-------------------------|
---------------------------------||-------------------------|
----------8-------------8-8-8-8-*||*------------------------|
--9-9-9-9-------9-9-9-9---------*||*------------------------|
---------------------------------||--------5-------------5--|
---------------------------------||---6------------6--------|


  S S S S E  E  S S S S S S S S    Q    Q    E  E  E  E   
--------------------------------|------------------------|
--------------------------------|------------------------|
--------------------------------|------------------------|
--------------------------------|------------------------|
----------5-------------5-5-5-5-|-------6-------------6--|
--6-6-6-6-------6-6-6-6---------|--7------------7--------|


1st time.                           2nd time.

  S S S S E  E  S S S S S S S S      S S S S S S S S S S S S S S S S  
---------------------------------||----------------------------------|
---------------------------------||----------------------------------|
--------------------------------*||----------------------------------|
--------------------------------*||----------------------------------|
----------6-------------6-6-6-6--||----------6-6-6-6---------6-6-6-6-|
--7-7-7-7-------7-7-7-7----------||--7-7-7-7---------7-7-7-7---------|


(3.43) Guitar solo

  E.  S E  E  E.  S E  E     E.  S E  E  E.  S E  E   
--------------------------|--------------------------|
--------------------------|--------------------------|
--------------------------|--------------------------|
--0---0-0--0--0---0-0--0--|--2---2-2--2--2---2-2--2--|
--------------------------|--------------------------|
--------------------------|--------------------------|


  E.  S E  E  E.  S E  E     E.  S E  E.  S E  E  E   
--------------------------|--------------------------|
--------------------------|--------------------------|
--------------------------|--------------------------|
--4---4-4--4--4---4-4--4--|--------------------0--2--|
--------------------------|--4---4-4--4---4-4--------|
--------------------------|--------------------------|


  E.  S E  E  E.  S E  E     E.  S E  E  E.  S E  E   
--------------------------|--------------------------|
--------------------------|--------------------------|
--------------------------|--------------------------|
--0---0-0--0--0---0-0--0--|--2---2-2--2--2---2-2--2--|
--------------------------|--------------------------|
--------------------------|--------------------------|


  E.  S E  E  E.  S E  E     E  E  E  E  E  E  E  E   
--------------------------|--------------------------|
--------------------------|--------------------------|
--------------------------|--------------------------|
--4---4-4--4--4---4-4--4--|--------------------2--4--|
--------------------------|--4--4--4--4--4--5--------|
--------------------------|--------------------------|


  E  E  E  E  E  E  E  E     E  E  E  E  E  E  E  E   
--------------------------|--------------------------|
--------------------------|--------------------------|
--------------------------|--------------------------|
--5--5--5--5--5--5--5--5--|--7--7--7--7--7--7--7--7--|
--------------------------|--------------------------|
--------------------------|--------------------------|


  E  E  E  E  E  E  E  E     E  E  E  E  E  E  E  E   
--------------------------|--------------------------|
--------------------------|--------------------------|
--4--4--4--4--4--4--4--4--|--------------------------|
--------------------------|--4--4--4--4--4--4--4--7--|
--------------------------|--------------------------|
--------------------------|--------------------------|


  E  E  E  E  E  E  E  E     E  E  E  E  E  E  E  E   
--------------------------|--------------------------|
--------------------------|--------------------------|
--------------------------|--------------------------|
--5--5--5--5--5--0--------|--------------------------|
--------------------4-----|--0--0--0--0--0--0--0--0--|
-----------------------3--|--------------------------|


(4.04) Dat Riff 3

  E  E  E  E  S S E  E  E     E  E  E  E  E  Q.      
---------------------------|------------------------|
---------------------------|------------------------|
---------------------------|------------------------|
---------------------------|------------------------|
--2--0--2--0--2-2-0--2--0--|--2--0--2--0--2--3------|
---------------------------|------------------------|


  E  E  E  E  S S E  E  E     E  E  E  E  E  Q.      
---------------------------|------------------------|
---------------------------|------------------------|
---------------------------|------------------------|
---------------------------|------------------------|
--2--0--2--0--2-2-0--2--0--|--2--0--2--0--2--0------|
---------------------------|------------------------|


  E  E  E  E  S S E  E  E     E  E  E  E  E  Q.      
---------------------------|------------------------|
---------------------------|------------------------|
---------------------------|------------------------|
---------------------------|------------------------|
--2--0--2--0--2-2-0--2--0--|--2--0--2--0--2--3------|
---------------------------|------------------------|


                                                        (4.16) Chorus 3
  E  E  E  E  S S E  E  E     E  E  E  E  E  E  E  E     W                 
---------------------------|--------------------------|-------------------|
---------------------------|--------------------------|-------------------|
---------------------------|--------------------------|-------------------|
---------------------------|--------------------------|-------------------|
--2--0--2--0--2-2-0--2--0--|--2--2--2--2--2--2--2-----|-------------------|
---------------------------|-----------------------3--|--L----------------|


  W                   E  E  E  E  E  E  E  E     E  E  E  E  E  E  E  E   
-------------------|--------------------------|--------------------------|
-------------------|--------------------------|--------------------------|
-------------------|--------------------------|--------------------------|
-------------------|--1--1--1--1--1--1--1--1--|--1--1--1--1--1--3--1--0--|
-------------------|--------------------------|--------------------------|
--L----------------|--------------------------|--------------------------|


  E  E  E  E  E  E  E  E     E  E  E  E  E  E  E  E     Q    E  E  Q    E  E   
--------------------------|--------------------------|------------------------|
--------------------------|--------------------------|------------------------|
--------------------------|--------------------------|------------------------|
--------------------------|--------------------------|------------------------|
--3--3--3--3--3--3--3--3--|--3--3--3--3--1--1--1--1--|------------------------|
--------------------------|--------------------------|--4----4--4--4----4--4--|


  Q    E  E  E  E  Q       E  E  E  E  E  E  E  E     E  E  E  E  E  E  E  E   
------------------------|--------------------------|--------------------------|
------------------------|--------------------------|--------------------------|
------------------------|--------------------------|--------------------------|
------------------------|--------------------------|-----------------------0--|
------------------------|--------------------------|-----------------0--1-----|
--4----4--4--4--4--6----|--3--3--3--3--3--3--3--3--|--3--3--3--3--3-----------|


  E  E  E  E  E  E  E  E     E  E  E  E  E  E  E  E   
--------------------------|--------------------------|
--------------------------|--------------------------|
--------------------------|--------------------------|
--1--1--1--1--1--1--1--1--|--1--1--1--1--1--3--1--0--|
--------------------------|--------------------------|
--------------------------|--------------------------|


  E  E  E  E  E  E  E  E     E  E  E  E  E  E  E  E     Q    E  E  Q    E  E   
--------------------------|--------------------------|------------------------|
--------------------------|--------------------------|------------------------|
--------------------------|--------------------------|------------------------|
--------------------------|--------------------------|------------------------|
--3--3--3--3--3--3--3--3--|--3--3--3--3--1--1--1--1--|------------------------|
--------------------------|--------------------------|--4----4--4--4----4--4--|


                        (4.40) Chorus 4 

  Q    E  E  Q    Q       E  E  E  E  E  E  E  E     E  E  E  E  E  E  E  E   
-----------------------|--------------------------|--------------------------|
-----------------------|--------------------------|--------------------------|
-----------------------|--------------------------|--------------------------|
-----------------------|--------------------------|-----------------------0--|
-------------3---------|--------------------------|-----------------0--1-----|
--4----4--4-------4----|--3--3--3--3--3--3--3--3--|--3--3--3--3--3-----------|


  E  E  E  E  E  E  E  E     E  E  E  E  E  E  E  E   
--------------------------|--------------------------|
--------------------------|--------------------------|
--------------------------|--------------------------|
--1--1--1--1--1--1--1--1--|--1--1--1--1--1--3--1--0--|
--------------------------|--------------------------|
--------------------------|--------------------------|


  E  E  E  E  E  E  E  E     E  E  E  E  E  E  E  E   
--------------------------|--------------------------|
--------------------------|--------------------------|
--------------------------|--------------------------|
--------------------------|--------------------------|
--3--3--3--3--3--3--3--3--|--3--3--3--3--1--1--1--1--|
--------------------------|--------------------------|


  S S Q    S S Q    S S E     E  S S Q    S S Q  E E   
---------------------------|--------------------------|
---------------------------|--------------------------|
---------------------------|--------------------------|
---------------------------|--------------------------|
---------------------------|---------------------3----|
--4-4-4----4-4-4----4-4-4--|--L--4-4-4----4-4-4----4--|


  E  E  E  E  E  E  E  E     E  E  E  E  E  E  E  E   
--------------------------|--------------------------|
--------------------------|--------------------------|
--------------------------|--------------------------|
--------------------------|-----------------------0--|
--------------------------|-----------------0--1-----|
--3--3--3--3--3--3--3--3--|--3--3--3--3--3-----------|


  E  E  E  E  E  E  E  E     E  E  E  E  E  E  E  E   
--------------------------|--------------------------|
--------------------------|--------------------------|
--------------------------|--------------------------|
--1--1--1--1--1--1--1--1--|--1--1--1--1--1--3--1--0--|
--------------------------|--------------------------|
--------------------------|--------------------------|

                                                      (4.59) Outro
                                                             |--3--|            
  E  E  E  E  E  E  E  E     E  E  E  E  E  E  E  E     Q    E  E  E  H         
--------------------------|--------------------------|-------------------------|
--------------------------|--------------------------|-------------------------|
--------------------------|--------------------------|-------------------------|
--------------------------|--------------1--0--------|-------------------------|
--3--3--3--3--3--3--3--3--|--3--3--3--3--------3--1--|-------------------------|
--------------------------|--------------------------|--4----4--4--4--4--------|


  H        H           W                  
--------------------|-------------------||
--------------------|-------------------||
--------------------|-------------------||
--------------------|-------------------||
-----------0--------|--L----------------||
--4-----------------|-------------------||














                                10. THE PROPHECY OF PLEIADES



(0.47) Chug
     Q    Q    E  E  Q    Q    Q       Q    Q    E  E  Q    Q    Q     
C||---------------------------------|---------------------------------|
G||---------------------------------|---------------------------------|
D||---------------------------------|---------------------------------|
A||---------------------------------|---------------------------------|
E||---------------------------------|---------------------------------|
B||--0----0-------0--0----0---------|--0----0-------0--0----0---------|


  Q    E  Q    E  Q    H           Q.     E  E  E  Q    Q    Q     
--------------------------------|---------------------------------|
--------------------------------|---------------------------------|
--------------------------------|---------------------------------|
--------------------------------|---------------------------------|
--1----1-------1--1----1--------|--1------1-----1--1----3----1----|
--------------------------------|---------------------------------|


  Q    Q    E  E  Q    Q    Q       Q    Q    E  E  Q    Q    Q     
---------------------------------|---------------------------------|
---------------------------------|---------------------------------|
---------------------------------|---------------------------------|
---------------------------------|---------------------------------|
---------------------------------|---------------------------------|
--3----3-------3--3----3---------|--3----3-------3--3----3---------|


  Q    Q    E  E  Q    Q    Q       Q    Q    E  E  Q    Q    Q     
---------------------------------|---------------------------------|
---------------------------------|---------------------------------|
---------------------------------|---------------------------------|
---------------------------------|---------------------------------|
---------------------------------|---------------------------------|
--2----2-------2--2----2---------|--2----2-------2--2----2---------|


  Q    Q    E  E  Q    Q    Q       Q    Q    E  E  Q    Q    Q     
---------------------------------|---------------------------------|
---------------------------------|---------------------------------|
---------------------------------|---------------------------------|
---------------------------------|---------------------------------|
---------------------------------|---------------------------------|
--0----0-------0--0----0---------|--0----0-------0--0----0---------|


  Q    E  Q    E  Q    H           Q.     E  E  E  Q    Q    Q     
--------------------------------|---------------------------------|
--------------------------------|---------------------------------|
--------------------------------|---------------------------------|
--------------------------------|---------------------------------|
--1----1-------1--1----1--------|--1------1-----1--1----3----1----|
--------------------------------|---------------------------------|


  Q    Q    E  E  Q    Q    Q       Q    Q    E  E  Q    Q    Q     
---------------------------------|---------------------------------|
---------------------------------|---------------------------------|
---------------------------------|---------------------------------|
---------------------------------|---------------------------------|
---------------------------------|---------------------------------|
--3----3-------3--3----3---------|--3----3-------3--3----3---------|


  Q    Q    E  E  Q    Q    Q       Q    Q    E  E  E  E  E  E  E  E   
---------------------------------|------------------------------------|
---------------------------------|------------------------------------|
---------------------------------|------------------------------------|
---------------------------------|------------------------------------|
---------------------------------|------------------------------------|
--2----2-------2--2----2---------|--2----2-------2--2--2--2--2-----2--|



(1.30) Verse 1

  Q.     Q    E  Q    Q    Q       Q.     Q    E  E  E  E  E  E  E   
--------------------------------|-----------------------------------|
--------------------------------|-----------------------------------|
--------------------------------|-----------------------------------|
--------------------------------|--------------------------0--2--0--|
--------------------------------|-----------------0--2--3-----------|
--0------0----0--0----0---------|--0------0----3--------------------|


  Q.     Q    E  Q    Q    E  E     E  E  E  E  E  E  E  E  E  E  E  E   
---------------------------------|--------------------------------------|
---------------------------------|--------------------------------------|
---------------------------------|--5--7--5--4--2-----------------------|
------------------------------5--|-----------------5--2--5--2--5--2--5--|
--3------3----2--3----3----------|--------------------------------------|
---------------------------------|--------------------------------------|


  E  E  E  E  E  E  Q    Q    E  S S    Q.     Q    E  Q    Q    E  E   
-------------------------------------|---------------------------------|
-------------------------------------|---------------------------------|
--2----------------------------------|---------------------------------|
-----5--2--0-------------------------|---------------------------------|
--------------3--2--0----0-----------|--0------0-------0----0-------0--|
---------------------------------3-4-|--------------3------------------|


  Q.     Q    E  Q    Q.     E     E  E  E  E  E  E  E  E  E  E  E  E   
--------------------------------|--------------------------------------|
--------------------------------|--------------------------------------|
--------------------------------|--3--5--3--2--0-----------------------|
-----------------------------3--|-----------------3--2--0--------------|
--1------1----1--1----1---------|--------------------------3--2--0-----|
--------------------------------|-----------------------------------3--|


(Vocals enter)

  Q.     Q    E  Q    Q    Q       Q.     Q    E  E  E  E  E  E  E   
--------------------------------|-----------------------------------|
--------------------------------|-----------------------------------|
--------------------------------|-----------------------------------|
--------------------------------|-----------------------------------|
--------------------------------|-----------------0--2-----0--2-----|
--0------0----0--0----0---------|--0------0----3--------3--------3--|


  Q.     Q    E  Q    Q    Q       Q.     Q    E  E  E  E  E  E  E   
--------------------------------|-----------------------------------|
--------------------------------|-----------------------------------|
--------------------------------|-----------------------------------|
--------------------------------|--------------------2--------------|
--3------3----2--3----3---------|--3------3----2--3-----3--2--------|
--------------------------------|-----------------------------3--0--|


  Q.     Q    E  Q    Q    Q       Q.     Q    E  Q    Q    Q     
--------------------------------|--------------------------------|
--------------------------------|--------------------------------|
--------------------------------|--------------------------------|
--------------------------------|--------------------------------|
--0------0-------0----0---------|--0------0-------0----0---------|
--------------3-----------------|--------------3-----------------|


  Q.     Q    E  Q    Q    E  E     Q.     Q    E  H.            
---------------------------------|------------------------------|
---------------------------------|------------------------------|
---------------------------------|------------------------------|
---------------------------------|------------------------------|
--1------1----0--1----1-------0--|--1------1----0---------------|
---------------------------------|-----------------1------------|


(2.13)

  E  E  E  E  E  E  Q    Q    Q       E  E  E  E  E  E  Q    H         
-----------------------------------|----------------------------------|
-----------------------------------|----------------------------------|
-----------------------------------|----------------------------------|
-----------------------------------|----------------------------------|
-----------------------------------|----------------------------------|
-----0--0--0-----0--0--------------|-----0--0--0-----0--0----0--------|


  E  E  E  E  E  E  Q    Q    Q       E  E  E  E  E  E  Q    H         
-----------------------------------|----------------------------------|
-----------------------------------|----------------------------------|
-----------------------------------|----------------------------------|
-----------------------------------|----------------------------------|
-----3--3--3-----3--3--------------|-----3--3--3-----3--3----3--------|
-----------------------------------|----------------------------------|


  E  E  E  E  E  E  Q    Q    Q       E  E  E  E  E  E  Q    H         
-----------------------------------|----------------------------------|
-----------------------------------|----------------------------------|
-----------------------------------|----------------------------------|
-----------------------------------|----------------------------------|
-----0--0--0-----0--0--------------|-----0--0--0-----0--0----0--------|
-----------------------------------|----------------------------------|


  E  E  E  E  E  E  Q    Q    Q       E  E  E  E  E  E  E  E  E  E  E  E   
-----------------------------------|--------------------------------------|
-----------------------------------|--------------------------------------|
-----------------------------------|--------------------------------------|
-----------------------------------|--------------------------------------|
-----1--1--1-----1--1--------------|-----1--1--1-----1-----------1--1--1--|
-----------------------------------|--------------------1--1--1-----------|


(2.34) Pre-Chorus 1

  E  E  E  E  E  E  E  E     E  E  E  E  E  Q.        E  E  E  E  E  E  E  E   
--------------------------|------------------------|--------------------------|
--------------------------|------------------------|--------------------------|
--------------------------|------------------------|--------------------------|
--------------------------|-----1-----1-----1------|--------------------------|
--0--0--1--0-----0--1--0--|------------------------|--0--0--1--0-----0--1--0--|
--------------------------|------------------------|--------------------------|


  E  E  E  E  E  Q.        E  E  E  E  E  E  E  E     E  E  E  E  E  Q.      
------------------------|--------------------------|------------------------|
------------------------|--------------------------|------------------------|
------------------------|--------------------------|------------------------|
-----1-----1-----1------|--------------------------|-----1-----1-----1------|
------------------------|--0--0--3--2-----0--2--1--|------------------------|
------------------------|--------------------------|------------------------|


  E  E  E  E  E  E  E  E     E  E  E  E  E  Q.        E  E  E  E  E  E  E  E   
--------------------------|------------------------|--------------------------|
--------------------------|------------------------|--------------------------|
--------------------------|------------------------|--------------------------|
--------------------------|-----1-----1-----1------|--------------------------|
--0--0--3--2-----0--2--1--|------------------------|--0--0--1--0--L--0--1--0--|
--------------------------|------------------------|--------------------------|


  E  E  E  E  E  Q.        E  E  E  E  E  E  E  E     E  E  E  E  E  Q.      
------------------------|--------------------------|------------------------|
------------------------|--------------------------|------------------------|
------------------------|--------------------------|------------------------|
-----1-----1-----1------|--------------------------|-----1-----1-----1------|
--L---------------------|--0--0--1--0--L--0--1--0--|--L---------------------|
------------------------|--------------------------|------------------------|


  E  E  E  E  E  E  E  E     E  E  E  E  E  Q.        E  E  E  E  E  E  E  E   
--------------------------|------------------------|--------------------------|
--------------------------|------------------------|--------------------------|
--------------------------|------------------------|--------------------------|
--------------------------|-----1-----1-----1------|--------------------------|
--0--0--3--2--L--0--2--1--|--L---------------------|--0--0--1--0--L--0--1--0--|
--------------------------|------------------------|--------------------------|


                           (3.01) Chorus 1
  E  E  E  E  E  E  E  E     H        E  E  E  E     H        E  E  E  E   
--------------------------|-----------------------|-----------------------|
--------------------------|-----------------------|-----------------------|
--------------------------|-----------------5--7--|--L--------L--2--0--2--|
-----------------0--2-----|--0--------L--7--------|-----------------------|
--L--4-----4--L--------4--|-----------------------|-----------------------|
--------------------------|-----------------------|-----------------------|


  H        E  E  E  E     E  Q    E  Q    Q       H        E  E  E  E   
-----------------------|-----------------------|-----------------------|
-----------------------|-----------------------|-----------------------|
--3--------L--2--------|-----------------------|-----------------5--7--|
-----------------3-----|-----------------------|--0--------L--7--------|
--------------------1--|--L--0----1--L----3----|-----------------------|
-----------------------|-----------------------|-----------------------|


  H.           E  E     H.           E  E     E  Q    E  E  E  E  E   
---------------------|---------------------|-------------------------|
---------------------|---------------------|-------------------------|
--L------------0--2--|--3------------------|-------------------------|
---------------------|---------------3-----|-------------------------|
---------------------|------------------1--|--L--0----1--L--1--3--3--|
---------------------|---------------------|-------------------------|


  E  E  E  E  E  E  E  E     E  E  E  E  E  E  E  E   
--------------------------|--------------------------|
--------------------------|--------------------------|
--------------------------|--------------------------|
--0--0--0--0--0--0--0--0--|--0--0--0--0--0--0--2--3--|
--------------------------|--------------------------|
--------------------------|--------------------------|


  E  E  E  E  E  E  E  E     E  E  E  E  E  E  E  E   
--------------------------|--------------------------|
--------------------------|--------------------------|
--------------------------|--------------------------|
--------------------------|--------------------------|
--1--1--1--1--1--1--1--1--|--1--1--1--1--1--0--1--3--|
--------------------------|--------------------------|


  E  E  E  E  E  E  E  E     E  E  E  E  E  E  E  E   
--------------------------|--------------------------|
--------------------------|--------------------------|
--------------------------|--------------------------|
--0--0--0--0--0--0--0--0--|--0--0--0--0--3--2--0-----|
--------------------------|-----------------------3--|
--------------------------|--------------------------|


                                  (3.28) Verse 2
  Q    Q    Q    Q    Q    Q       Q.     Q    E  Q    Q    Q     
--------------------------------|--------------------------------|
--------------------------------|--------------------------------|
--------------------------------|--------------------------------|
--------------------------------|--------------------------------|
--1----1----1-------------------|--------------------------------|
-----------------2----2----2----|--0------0----0--0----0---------|


  Q.     Q    E  E  E  E  E  E  E     Q.     Q    E  Q    Q    E  S S  
-----------------------------------|----------------------------------|
-----------------------------------|----------------------------------|
-----------------------------------|----------------------------------|
-----------------------------------|----------------------------------|
-----------------0--2-----0--2-----|--3------3----2--3----3-------1-2-|
--0------0----3--------3--------3--|----------------------------------|


  Q.     Q    E  E  E  E  E  E  E     Q.     Q    E  Q    Q    E  S S  
-----------------------------------|----------------------------------|
-----------------------------------|----------------------------------|
-----------------------------------|----------------------------------|
--------------5--4-----2-----------|----------------------------------|
--3------3----------5-----3--2-----|--0------0-------0----0-----------|
--------------------------------3--|--------------3---------------3-4-|


  Q.     Q    E  Q    Q    E  E     Q.     Q    E  Q    Q    E  E   
---------------------------------|---------------------------------|
---------------------------------|---------------------------------|
---------------------------------|---------------------------------|
---------------------------------|---------------------------------|
--0------0-------0----0-------0--|--1------1----0--1----1-------0--|
--------------3------------------|---------------------------------|


  Q.     Q    E  H.              E  E  E  E  E  E  Q    Q    Q     
------------------------------|-----------------------------------|
------------------------------|-----------------------------------|
------------------------------|-----------------------------------|
------------------------------|-----------------------------------|
--1------1----0---------------|-----------------------------------|
-----------------1------------|-----0--0--0-----0--0--------------|


  E  E  E  E  E  E  Q    H           E  E  E  E  E  E  Q    Q    Q     
----------------------------------|-----------------------------------|
----------------------------------|-----------------------------------|
----------------------------------|-----------------------------------|
----------------------------------|-----------------------------------|
----------------------------------|-----3--3--3-----3--3--------------|
-----0--0--0-----0--0----0--------|-----------------------------------|


  E  E  E  E  E  E  Q    H           E  E  E  E  E  E  Q    Q    Q     
----------------------------------|-----------------------------------|
----------------------------------|-----------------------------------|
----------------------------------|-----------------------------------|
----------------------------------|-----------------------------------|
-----3--3--3-----3--3----3--------|-----0--0--0-----0--0--------------|
----------------------------------|-----------------------------------|


  E  E  E  E  E  E  Q    H           E  E  E  E  E  E  Q    Q    Q     
----------------------------------|-----------------------------------|
----------------------------------|-----------------------------------|
----------------------------------|-----------------------------------|
----------------------------------|-----------------------------------|
-----0--0--0-----0--0----0--------|-----1--1--1-----1--1--------------|
----------------------------------|-----------------------------------|


                                       (4.10) Pre-Chorus 2
  E  E  E  E  E  E  E  E  E  E  E  E     E  E  E  E  E  E  E  E   
--------------------------------------|--------------------------|
--------------------------------------|--------------------------|
--------------------------------------|--------------------------|
--------------------------------------|--------------------------|
-----1--1--1-----1-----------1--1--1--|--0--0--1--0-----0--1--0--|
--------------------1--1--1-----------|--------------------------|


  E  E  E  E  E  Q.        E  E  E  E  E  E  E  E     E  E  E  E  E  Q.      
------------------------|--------------------------|------------------------|
------------------------|--------------------------|------------------------|
------------------------|--------------------------|------------------------|
-----1-----1-----1------|--------------------------|-----1-----1-----1------|
------------------------|--0--0--1--0-----0--1--0--|------------------------|
------------------------|--------------------------|------------------------|


  E  E  E  E  E  E  E  E     E  E  E  E  E  Q.        E  E  E  E  E  E  E  E   
--------------------------|------------------------|--------------------------|
--------------------------|------------------------|--------------------------|
--------------------------|------------------------|--------------------------|
--------------------------|-----1-----1-----1------|--------------------------|
--0--0--3--2-----0--2--1--|------------------------|--0--0--3--2-----0--2--1--|
--------------------------|------------------------|--------------------------|


  E  E  E  E  E  Q.        E  E  E  E  E  E  E  E     E  E  E  E  E  Q.      
------------------------|--------------------------|------------------------|
------------------------|--------------------------|------------------------|
------------------------|--------------------------|------------------------|
-----1-----1-----1------|--------------------------|-----1-----1-----1------|
------------------------|--0--0--1--0--L--0--1--0--|--L---------------------|
------------------------|--------------------------|------------------------|


  E  E  E  E  E  E  E  E     E  E  E  E  E  Q.        E  E  E  E  E  E  E  E   
--------------------------|------------------------|--------------------------|
--------------------------|------------------------|--------------------------|
--------------------------|------------------------|--------------------------|
--------------------------|-----1-----1-----1------|--------------------------|
--0--0--1--0--L--0--1--0--|--L---------------------|--0--0--3--2--L--0--2--1--|
--------------------------|------------------------|--------------------------|


                                                                |----3----|     
  E  E  E  E  E  Q.        E  E  E  E  E  E  E  E     E  Q.     Q    Q    Q     
------------------------|--------------------------|---------------------------|
------------------------|--------------------------|---------------------------|
------------------------|--------------------------|---------------------------|
-----1-----1-----1------|--------------------------|---------------------------|
--L---------------------|--0--0--1--0--L--0--1--0--|--L--4------4----4----4----|
------------------------|--------------------------|---------------------------|


(4.26) Chorus 2

  H        E  E  E  E     H        E  E  E  E     H        E  E  E  E   
-----------------------|-----------------------|-----------------------|
-----------------------|-----------------------|-----------------------|
-----------------5--7--|--L--------L--2--0--2--|--3--------L--2--------|
--0--------L--7--------|-----------------------|-----------------3-----|
-----------------------|-----------------------|--------------------1--|
-----------------------|-----------------------|-----------------------|


  E  Q    E  Q    Q       H        E  E  E  E     E  Q    Q    Q    E   
-----------------------|-----------------------|-----------------------|
-----------------------|-----------------------|-----5----4------------|
-----------------------|-----------------5--7--|--L------------7----5--|
-----------------------|--0--------L--7--------|-----------------------|
--L--0----1--L----3----|-----------------------|-----------------------|
-----------------------|-----------------------|-----------------------|


  H.           E  E     E  Q    E  E  E  E  E     E  E  E  E  E  E  E  E   
---------------------|-------------------------|--------------------------|
---------------------|-------------------------|--------------------------|
--3------------------|-------------------------|--------------------------|
---------------3-----|-------------3--3--2--2--|--0--0--0--0--0--0--0--0--|
------------------1--|--L--0----1--------------|--------------------------|
---------------------|-------------------------|--------------------------|


  E  E  E  E  E  E  E  E     E  E  E  E  E  E  E  E   
--------------------------|--------------------------|
--------------------------|--------------------------|
--------------------------|--------------------------|
--0--0--0--0--0--0--2--3--|--------------------------|
--------------------------|--1--1--1--1--1--1--1--1--|
--------------------------|--------------------------|


  E  E  E  E  E  E  E  E     E  E  E  E  E  E  E  E   
--------------------------|--------------------------|
--------------------------|--------------------------|
--------------------------|--------------------------|
--------------------------|--0--0--0--0--0--0--0--0--|
--1--1--1--1--1--0--1--3--|--------------------------|
--------------------------|--------------------------|


  E  E  E  E  E  E  E  E     E  E  E  E  E  E  E  E   
--------------------------|--------------------------|
--------------------------|--------------------------|
--------------------------|--------------------------|
--0--0--0--0--3--2--0-----|--------------------------|
-----------------------3--|--1--1--1--1--1--1--1-----|
--------------------------|-----------------------2--|

                           (5.04) 'Heed the call...'

  E  E  E  E  E  E  E  E     E  E  E  E  E  E  E  E   
--------------------------|--------------------------|
--------------------------|--------------------------|
--------------------------|--------------------------|
--------------------------|--5--5--5--5--5--5--5--5--|
--------------------------|--------------------------|
--L--2--2--2--2--2--2--2--|--------------------------|


  E  E  E  E  E  E  E  E     E  E  E  E  E  E  E  E   
--------------------------|--------------------------|
--------------------------|--------------------------|
--------------------------|--------------------------|
--5--5--5--5--5--5--3--5--|--1--1--1--1--1--1--1--0--|
--------------------------|--------------------------|
--------------------------|--------------------------|


  E  E  E  E  E  E  E  E     E  E  E  E  E  E  E  E   
--------------------------|--------------------------|
--------------------------|--------------------------|
--------------------------|--------------------------|
--1--1--1--1--1--0--1--3--|--5--5--5--5--5--5--5--5--|
--------------------------|--------------------------|
--------------------------|--------------------------|


  E  E  E  E  E  E  E  E     E  E  E  E  E  E  E  E     E  Q    Q    Q.      
--------------------------|--------------------------|----------------------|
--------------------------|--------------------------|--3--2----0-----------|
--------------3--2--------|-----------------------3--|---------------3------|
--5--5--5--5--------5--3--|--1--1--1--1--1--1--1-----|----------------------|
--------------------------|--------------------------|----------------------|
--------------------------|--------------------------|----------------------|


(5.17) Bridge - Keys solo
  -----   -----                                                     
                  E  E  E  E  E  E  E  E     E  E  E  E  E  Q.      
-------|-------|--------------------------|------------------------|
-------|-------|--------------------------|------------------------|
-------|-------|--------------------------|------------------------|
-------|-------|--------------------------|-----1-----1-----1------|
-------|-------|--0--0--1--0-----0--1--0--|------------------------|
-------|-------|--------------------------|------------------------|


  E  E  E  E  E  E  E  E     E  E  E  E  E  Q.        E  E  E  E  E  E  E  E   
--------------------------|------------------------|--------------------------|
--------------------------|------------------------|--------------------------|
--------------------------|------------------------|--------------------------|
--------------------------|-----1-----1-----1------|--------------------------|
--0--0--1--0-----0--1--0--|------------------------|--0--0--3--2-----0--2--1--|
--------------------------|------------------------|--------------------------|


  E  E  E  E  E  Q.        E  E  E  E  E  E  E  E     E  E  E  E  E  Q.      
------------------------|--------------------------|------------------------|
------------------------|--------------------------|------------------------|
------------------------|--------------------------|------------------------|
-----1-----1-----1------|--------------------------|-----1-----1-----1------|
------------------------|--0--0--3--2-----0--2--1--|------------------------|
------------------------|--------------------------|------------------------|


  E  E  E  E  E  E  E  E     E  E  E  E  E  Q.        E  E  E  E  E  E  E  E   
--------------------------|------------------------|--------------------------|
--------------------------|------------------------|--------------------------|
--------------------------|------------------------|--------------------------|
--------------------------|-----1-----1-----1------|--------------------------|
--0--0--1--0--L--0--1--0--|--L---------------------|--0--0--1--0--L--0--1--0--|
--------------------------|------------------------|--------------------------|


  E  E  E  E  E  Q.        E  E  E  E  E  E  E  E     E  E  E  E  E  Q.      
------------------------|--------------------------|------------------------|
------------------------|--------------------------|------------------------|
------------------------|--------------------------|------------------------|
-----1-----1-----1------|--------------------------|-----1-----1-----1------|
--L---------------------|--0--0--3--2--L--0--2--1--|--L---------------------|
------------------------|--------------------------|------------------------|


                                                      (5.47) Guitar solo

  E  E  E  E  E  E  E  E     E  E  E  E  E  Q.        Q.     E   H         
--------------------------|------------------------|----------------------|
--------------------------|------------------------|----------------------|
--------------------------|------------------------|----------------------|
--------------------------|-----1-----1-----1------|----------------------|
--0--0--3--2--L--0--2--1--|--L---------------------|--2------2\-----------|
--------------------------|------------------------|----------------------|


              Q.     E   H                       Q.     E   H         
-----------|----------------------|-----------|----------------------|
-----------|----------------------|-----------|----------------------|
-----------|----------------------|-----------|----------------------|
-----------|----------------------|-----------|----------------------|
-----------|--2------2\-----------|-----------|--2------2\-----------|
-----------|----------------------|-----------|----------------------|


              Q.     E   H           H         E.  E.  E   
-----------|----------------------|-----------------------|
-----------|----------------------|-----------------------|
-----------|----------------------|-----------------------|
-----------|----------------------|-----------------------|
-----------|--2------2\-----------|-----------/5---4---0--|
-----------|----------------------|-----------------------|


  E.  S E  E  S S S S E  E     E.  S E  E  E  E  E  E   
----------------------------|--------------------------|
----------------------------|--------------------------|
----------------------------|--------------------------|
----------------------------|--------------------------|
--2---2-2--0--2-2---2-2--0--|--2---2-2--0--2--2--4--5--|
----------------------------|--------------------------|


  E.  S E  E  S S S S E  E     E.  S E  E  E  E  E  E   
----------------------------|--------------------------|
----------------------------|--------------------------|
----------------------------|--------------------------|
----------------------------|--------------------------|
----------------------------|-----------------------0--|
--3---3-3--2--3-3---3-3--2--|--3---3-3--2--3--3--3-----|


  E.  S E  E  S S S S E  E     E.  S E  E  E  E  E  E   
----------------------------|--------------------------|
----------------------------|--------------------------|
----------------------------|--------------------------|
----------------------------|-----------------------4--|
--2---2-2--0--2-2---2-2--0--|--2---2-2--0--2--4--5-----|
----------------------------|--------------------------|


  E.  S E  E  S S S S E  E     E  E  E  E  E  E  E  E   
----------------------------|--------------------------|
----------------------------|--------------------------|
----------------------------|--0--2--0-----------------|
--5---5-5--4--5-5---5-5--4--|-----------4--2--0--------|
----------------------------|--------------------4--0--|
----------------------------|--------------------------|


  E  E  E  E  E  E  E  E     E  Q    Q    Q    E     E  E  E  E  E  E  E  E   
--------------------------|-----------------------|--------------------------|
--------------------------|-----------------------|--------------------------|
--------------------------|-----------------------|-----4--------2-----------|
--------------------------|----------7----5----4--|--5-----5--4-----4--4--2--|
--2--2--2--0--0--0--0-----|-----5-----------------|--------------------------|
-----------------------3--|--L--------------------|--------------------------|


  E  E  E  E  E  E  E  E     E  E  E  E  E  E  E  E     E  Q    Q    Q    E   
--------------------------|--------------------------|-----------------------|
--------------------------|--------------------------|-----------------------|
--------------------------|--------------------------|-----------------------|
--L--2--2--0--2--2--2--0--|--------------------------|----------7----5----4--|
--------------------------|--2--2--2--0--0--0--0-----|-----5-----------------|
--------------------------|-----------------------3--|--L--------------------|


                                                      (6.27)
  E  E  E  E  E  E  E  E     E  E  E  E  E  E  E  E     Q    Q    Q    E  E   
--------------------------|--------------------------|-----------------------|
--------------------------|--------------------------|-----------------------|
-----4--------2-----------|--------------------------|-----------------------|
--5-----5--4-----4--4--2--|--L--4--2--4--0--2-----0--|-----------------------|
--------------------------|--------------------4-----|--2---------0----------|
--------------------------|--------------------------|--------------------3--|



  E  E  E  E  Q.     E     Q    Q    Q    E  E     Q    E  E  E  E  E  E   
------------------------|-----------------------|-------------------------|
------------------------|-----------------------|-------------------------|
------------------------|-----------------------|-------------------------|
------------------------|-----------------------|-------------------------|
---------------------5--|--7---------5-------3--|--L----3--3--3--3--3--3--|
-----2-----0--L---------|-----------------------|-------------------------|


  E  E  E  E  E  E     E  E  E  E  E  E  E  E     E  E  E  E  E   
--------------------|--------------------------|-----------------|
--------------------|--------------------------|-----------------|
--------------------|--------------------------|-----------------|
--------------------|--------------------------|-----0-----0-----|
--3--3--3--3--3--5--|--2--2--2--2--2--2--2--2--|--2-----2-----2--|
--------------------|--------------------------|-----------------|


  E  E  E  E  E  E  E  E     E  E  E  E  E  E     E  E  E  E  E  E  E  E   
--------------------------|--------------------|--------------------------|
--------------------------|--------------------|--------------------------|
--------------------------|--------------------|--------------------------|
--------------------------|--------------------|--------------------------|
--3--3--3--3--3--3--3--3--|--3--3--3--3--3--5--|--2--2--2--2--2--2--2--2--|
--------------------------|--------------------|--------------------------|


  E  E  E  E  E  E  E  E     E  E  E  E  E  E  E  E   
--------------------------|--------------------------|
--------------------------|--------------------------|
--------------------------|--------------------------|
--------------------------|--------------------------|
--2--2--2--2--2--2--2--2--|--4--4--4--4--4--4--4--4--|
--------------------------|--------------------------|


  E  E  E  E  E  E  E  E     Q    E  Q    E  Q       E  Q    E  E  E  Q     
--------------------------|-----------------------|------------------------|
--------------------------|-----------------------|------------------------|
--------------------------|-----------------------|------------------------|
--------------------------|-----------------------|------------------------|
--4--4--4--4--4--4--4--4--|-----------------------|------------------------|
--------------------------|--3----3--3----3--3----|--3--3----3--3--3--3----|


  Q    E  Q    E  Q       E  Q    E  E  E  Q       E  E  E  E  E  E  E  E   
-----------------------|------------------------|--------------------------|
-----------------------|------------------------|--------------------------|
-----------------------|------------------------|--------------------------|
-----------------------|------------------------|--1--1--1--1--1--1--1--1--|
-----------------------|------------------------|--------------------------|
--1----1--1----1--1----|--1--1----1--1--1--1----|--------------------------|


  E  E  E  E  E  E  E  E     E  E  E  E  E  E  E  E   
--------------------------|--------------------------|
--------------------------|--------------------------|
--------------------------|--------------------------|
--1--1--1--1--1--3--5--1--|--0--0--0--0--0--0--0--0--|
--------------------------|--------------------------|
--------------------------|--------------------------|


  E  E  E  E  E  E  E  E     E  E  E  E  E  E  E  E   
--------------------------|--------------------------|
--------------------------|--------------------------|
--------------2--1--------|--------------------------|
--0--0--0--0--------2--0--|--0--0--0--0--0--0--0--0--|
--------------------------|--------------------------|
--------------------------|--------------------------|

                                       (7.06) Verse 3

  E  E  E  E  E  E  E  E     H           Q.     Q    E  Q    Q    Q     
--------------------------|-----------|--------------------------------|
--------------------------|-----------|--------------------------------|
--------------2--1--------|-----------|--------------------------------|
--0--0--0--0--------2--4--|-----------|--------------------------------|
--------------------------|-----------|--------------------------------|
--------------------------|-----------|--0------0----0--0----0---------|


  Q.     Q    E  E  E  E  E  E  E     Q.     Q    E  Q    Q    E  E   
-----------------------------------|---------------------------------|
-----------------------------------|---------------------------------|
-----------------------------------|---------------------------------|
--------------------------0--2--0--|------------------------------5--|
-----------------0--2--3-----------|--3------3----2--3----3----------|
--0------0----3--------------------|---------------------------------|


  E  E  E  E  E  E  E  E  E  E  E  E     E  E  E  E  E  E  Q    Q    E  S S  
--------------------------------------|-------------------------------------|
--------4--7--6-----4-----------------|-------------------------------------|
--5--7-----------7-----5--4--0-----0--|--2--0-------------------------------|
--------------------------------2-----|--------2--0-------------------------|
--------------------------------------|--------------3--2--0----0-----------|
--------------------------------------|---------------------------------3-4-|


  Q.     Q    E  Q    Q    E  E     Q.     Q.     Q.     E  E  E   
---------------------------------|--------------------------------|
---------------------------------|--------------------------5--4--|
---------------------------------|----------------5------7--------|
---------------------------------|---------3----------------------|
--0------0-------0----0-------0--|--1-----------------------------|
--------------3------------------|--------------------------------|


  E  E  E  E  E  E  E  E  E  E  E  E     Q.     Q    E  Q    Q    Q     
--------------------------------------|--------------------------------|
-----2--------------------------------|--------------------------------|
--5-----3--2--0-----------------------|--------------------------------|
-----------------3--2--0--------------|--------------------------------|
--------------------------3--2--0-----|--------------------------------|
-----------------------------------3--|--0------0----0--0----0---------|


  Q.     Q    E  E  E  E  E  E  E     Q.     Q    E  Q    Q    E  E   
-----------------------------------|---------------------------------|
-----------------------------------|---------------------------------|
-----------------------------------|---------------------------------|
-----------------------------------|---------------------------------|
-----------------0--2-----0--2-----|--3------3----2--3----3-------2--|
--0------0----3--------3--------3--|---------------------------------|


  Q.     Q    E  E  E  E  E  E  E     Q.     Q    E  Q    Q    E  S S  
-----------------------------------|----------------------------------|
-----------------------------------|----------------------------------|
-----------------------------------|----------------------------------|
--------------------2--------------|----------------------------------|
--3------3----2--3-----3--2-----2--|--0------0-------0----0-----------|
-----------------------------3-----|--------------3---------------3-4-|


  Q.     Q    E  Q    Q    E  E     Q.     Q    E  Q    Q    E  E   
---------------------------------|---------------------------------|
---------------------------------|---------------------------------|
---------------------------------|---------------------------------|
---------------------------------|---------------------------------|
--0------0-------0----0-------0--|--1------1----0--1----1-------0--|
--------------3------------------|---------------------------------|


  Q.     Q    E  H.              E  E  E  E  E  E  Q    Q    Q     
------------------------------|-----------------------------------|
------------------------------|-----------------------------------|
------------------------------|-----------------------------------|
------------------------------|-----------------------------------|
--1------1----0---------------|-----------------------------------|
-----------------1------------|-----0--0--0-----0--0--------------|


  E  E  E  E  E  E  Q    H           E  E  E  E  E  E  Q    Q    Q     
----------------------------------|-----------------------------------|
----------------------------------|-----------------------------------|
----------------------------------|-----------------------------------|
----------------------------------|-----------------------------------|
----------------------------------|-----3--3--3-----3--3--------------|
-----0--0--0-----0--0----0--------|-----------------------------------|


  E  E  E  E  E  E  Q    H           E  E  E  E  E  E  Q    Q    Q     
----------------------------------|-----------------------------------|
----------------------------------|-----------------------------------|
----------------------------------|-----------------------------------|
----------------------------------|-----------------------------------|
-----3--3--3-----3--3----3--------|-----0--0--0-----0--0--------------|
----------------------------------|-----------------------------------|


  E  E  E  E  E  E  Q    H           E  E  E  E  E  E  Q    Q    Q     
----------------------------------|-----------------------------------|
----------------------------------|-----------------------------------|
----------------------------------|-----------------------------------|
----------------------------------|-----------------------------------|
-----0--0--0-----0--0----0--------|-----1--1--1-----1--1--------------|
----------------------------------|-----------------------------------|

                                          (8.08) Pre-Chorus 3

  E  E  E  E  E  E  E  E  E  E  E  E     E  E  E  E  E  E  E  E   
--------------------------------------|--------------------------|
--------------------------------------|--------------------------|
--------------------------------------|--------------------------|
--------------------------------------|--------------------------|
-----1--1--1-----1-----------1--1--1--|--0--0--1--0-----0--1--0--|
--------------------1--1--1-----------|--------------------------|


  E  E  E  E  E  Q.        E  E  E  E  E  E  E  E     E  E  E  E  E  Q.      
------------------------|--------------------------|------------------------|
------------------------|--------------------------|------------------------|
------------------------|--------------------------|------------------------|
-----1-----1-----1------|--------------------------|-----1-----1-----1------|
------------------------|--0--0--1--0-----0--1--0--|------------------------|
------------------------|--------------------------|------------------------|


  E  E  E  E  E  E  E  E     E  E  E  E  E  Q.        E  E  E  E  E  E  E  E   
--------------------------|------------------------|--------------------------|
--------------------------|------------------------|--------------------------|
--------------------------|------------------------|--------------------------|
--------------------------|-----1-----1-----1------|--------------------------|
--0--0--3--2-----0--2--1--|------------------------|--0--0--1--0-----0--1--0--|
--------------------------|------------------------|--------------------------|
               

                                 (8.27) Chorus 3
  |----3----|    |----3----|                             
  Q    Q    Q    Q    Q    Q       H        E  E  E  E   
--------------------------------|-----------------------|
--------------------------------|-----------------------|
--------------------------------|-----------------5--7--|
--------------------------------|--0--------L--7--------|
-------4----4----4----4----4----|-----------------------|
--------------------------------|-----------------------|


  H        E  E  E  E     H        E  E  E  E     E  Q    E  Q    Q     
-----------------------|-----------------------|-----------------------|
-----------------------|-----------------------|-----------------------|
--L--------L--2--0--2--|--3--------L--2--------|-----------------------|
-----------------------|-----------------3-----|-----------------------|
-----------------------|--------------------1--|--L--0----1--L----3----|
-----------------------|-----------------------|-----------------------|


  H        E  E  E  E     E  Q    E  E  E  E  E     H.           E  E   
-----------------------|-------------------------|---------------------|
-----------------------|-----5----4--------------|---------------------|
-----------------5--7--|--L----------7--5-----5--|--3------------L--1--|
--0--------L--7--------|-------------------7-----|---------------------|
-----------------------|-------------------------|---------------------|
-----------------------|-------------------------|---------------------|


  H.           Q        E  E  E  E  E  E  E  E     E  E  E  E  E  E  E  E   
---------------------|--------------------------|--------------------------|
---------------------|--------------------------|--------------------------|
--L------------1\----|--------------------------|--------------------------|
---------------------|--0--0--0--0--0--0--0--0--|--0--0--0--0--0--0--0-----|
---------------------|--------------------------|-----------------------3--|
---------------------|--------------------------|--------------------------|


  E  E  E  E  E  E  E  E     E  E  E  E  E  E  E  E   
--------------------------|--------------------------|
--------------------------|--------------------------|
--------------------------|--------------------------|
--------------------------|--------------------------|
--1--1--1--1--1--0--1--3--|--1--1--1--1--1--1--3--3--|
--------------------------|--------------------------|


  E  E  E  E  E  E  E  E     E  E  E  E  E  E  E  E   
--------------------------|--------------------------|
--------------------------|--------------------------|
--------------------------|--------------------------|
--0--0--0--0--0--0--0--0--|--0--0--0--0--0--0--0-----|
--------------------------|-----------------------3--|
--------------------------|--------------------------|


  E  E  E  E  E  E  E  E     E  E  E  E  E  E  E  E   
--------------------------|--------------------------|
--------------------------|--------------------------|
--------------------------|--------------------------|
--------------------------|--------------------------|
--1--1--1--1--1--1--1-----|--------------------------|
-----------------------2--|--L--2--2--2--2--2--2--2--|


(8.49) Outro

  E  E  E  E  E  E  E  E     E  E  E  E  E  E  E  E   
--------------------------|--------------------------|
--------------------------|--------------------------|
--0--0--0--0--0--0--0--0--|--0--0--0--0--0--0--3--3--|
--------------------------|--------------------------|
--------------------------|--------------------------|
--------------------------|--------------------------|


  E  E  E  E  E  E  E   E     E  E  E  E  E  E  E   E   
---------------------------|---------------------------|
---------------------------|---------------------------|
--8--8--8--8--8--7--8--10--|--8--7--8--7--8--8--8--10--|
---------------------------|---------------------------|
---------------------------|---------------------------|
---------------------------|---------------------------|


   E   E   E   E   E   E   E   E      E   E   E   E   E   E   E   E   
----------------------------------|----------------------------------|
----------------------------------|----------------------------------|
--12--12--12--12--12--12--12--12--|--12--12--12--12--15--14--12------|
----------------------------------|------------------------------15--|
----------------------------------|----------------------------------|
----------------------------------|----------------------------------|


   E   E   E   E   E   E   E   E      E   E   E   E   E  E  E  E   
----------------------------------|-------------------------------|
----------------------------------|-------------------------------|
----------------------------------|-------------------------------|
--13--13--13--13--13--13--13--13--|--13--12--12--10--10--8--8--8--|
----------------------------------|-------------------------------|
----------------------------------|-------------------------------|


(9.03) 'Heed the call...'

  E  E  E  E  E  E  E  E     E  E  E  E  E  E  E  E   
--------------------------|--------------------------|
--------------------------|--------------------------|
--------------------------|--------------------------|
--------------------------|-----------------------0--|
--------------------------|--------------------1-----|
--3--3--3--3--3--3--3--3--|--3--3--3--3--3--3--------|


  E  E  E  E  E  E  E  E     E  E  E  E  E  E  E  E   
--------------------------|--------------------------|
--------------------------|--------------------------|
--------------------------|--------------------------|
--1--1--1--1--1--1--1--1--|--1--0--1--3--1--0--------|
--------------------------|--------------------3--1--|
--------------------------|--------------------------|


  E  E  E  E  E  E  E  E     E  E  E  E  E  E  E  E   
--------------------------|--------------------------|
--------------------------|--------------------------|
--------------------------|--------------------------|
--------------------------|-----------------------0--|
--------------------------|-----------------0--1-----|
--3--3--3--3--3--3--3--3--|--3--3--3--3--3-----------|


  E  E  E  E  E  E  E  E     E  E  E  E  E  E  E  E   
--------------------------|--------------------------|
--------------------------|--------------------------|
--------------------------|-----------------------3--|
--1--1--1--1--1--1--1--1--|--1--0--1--3--1--3--5-----|
--------------------------|--------------------------|
--------------------------|--------------------------|


  S S S S S S S S S S S S S S S S    S S S S S S S S S S S S S S S S  
----------------------------------|----------------------------------|
----------------------------------|----------------------------------|
--5-5-5-5-5-5-5-5-5-5-5-5-5-5-5-5-|--5-5-5-5-5-5-5-5-5-5-5-5-5-5-5-5-|
----------------------------------|----------------------------------|
----------------------------------|----------------------------------|
----------------------------------|----------------------------------|


  S S S S S S S S S S S S S S S S    S S S S S S S S S S S S S S S S  
----------------------------------|----------------------------------|
----------------------------------|----------------------------------|
--1-1-1-1-1-1-1-1-1-1-1-1-1-1-1-1-|--1-1-1-1-1-1-1-1-1-1-1-1---------|
----------------------------------|--------------------------1-1-1-1-|
----------------------------------|----------------------------------|
----------------------------------|----------------------------------|


  S S S S S S S S S S S S S S S S    S S S S S S S S S S S S S S S S  
----------------------------------|----------------------------------|
----------------------------------|----------------------------------|
----------------------------------|----------------------------------|
----------------------------------|----------------------------------|
--3-3-3-3-3-3-3-3-3-3-3-3-3-3-3-3-|--3-3-3-3-3-3-3-3-3-3-3-3-3-3-3-3-|
----------------------------------|----------------------------------|


  E  E  E  E  E  E  E  E  E  E  E  E     E  E  E  E  E  E  Q    H         
--------------------------------------|----------------------------------|
--------------------------------------|----------------------------------|
--3--3--3--1--1--1--------------------|----------------------------------|
--------------------1--1--1-----------|----------------------------------|
-----------------------------3--3--3--|----------------------------------|
--------------------------------------|-----0--0--0-----0--0-------------|


-------||
-------||
-------||
-------||
-------||
-------||




            
            
Suggest correction
Creating personal tab
Creating personal tab
You can edit any tab online and save it as your Personal.

You can edit, replace or remove any tab part or add personal notes – all changes will be seen only by you.

Personal tabs can be accessed anytime from any device, even offline.
Learn more »