Oops, an error
Loading. Please wait.

Dreamscape Lucidity bass

version 1
version 1

Whole song

Interactive

22 views 1 this week
no commentswrite comment
1 2 3 4 5
2 more votes to show rating
add to favorites
×
Save as Personal and add changes to this tab that will be seen only by you. Learn more ›
×
You can save this tab as Personal to edit and correct it or add notes. All changes will be seen only by you. Learn more »
launch autoscroll
font size
0
reset
guitar tuner
edit
Autoscroll
slow
fast
+/-
esc
set tempo
stop
Author
Difficulty
   Dreamscape Lucidity                               

                               Pagan's Mind



(0.00) Intro
                             H        H                         
C||-------|-------|-------|--------------------|-------|-------|
G||-------|-------|-------|--------------------|-------|-------|
D||-------|-------|-------|--------------------|-------|-------|
A||-------|-------|-------|--------------------|-------|-------|
E||-------|-------|-------|--------------------|-------|-------|
B||-------|-------|-------|--3--------0--------|-------|-------|


                     (0.11) Good luck...

  H        H           S S S S S S S S S S S S S S S S  
--------------------|----------------------------------|
--------------------|----------------------------------|
--------------------|----------------------------------|
--5-----------------|------------------------0-2-0-----|
-----------7--------|--0-0-0-0-0-0-0-0-0-2-3-------3-2-|
--------------------|----------------------------------|


  S S S S S S S S S S S S S S S S    S S S S S S S S S S S S S S S S  
----------------------------------|----------------------------------|
----------------------------------|----------------------------------|
----------------------------------|----------------------------------|
------------------2-3-2-0-2-0-----|------------------------0-2-0-----|
--0-0-0-0-0-0-0-0-------------3-2-|--0-0-0-0-0-0-0-0-0-2-3-------3-2-|
----------------------------------|----------------------------------|


  H        H           S S S S S S S S S S S S S S S S  
--------------------|----------------------------------|
--------------------|----------------------------------|
--------------------|----------------------------------|
--5-----------------|------------------------0-2-0-----|
-----------7--------|--0-0-0-0-0-0-0-0-0-2-3-------3-2-|
--------------------|----------------------------------|


  S S S S S S S S S S S S S S S S    S S S S S S S S S S S S S S S S  
----------------------------------|----------------------------------|
----------------------------------|----------------------------------|
----------------------------------|----------------------------------|
------------------2-3-2-0-2-0-----|------------------------0-2-0-----|
--0-0-0-0-0-0-0-0-------------3-2-|--0-0-0-0-0-0-0-0-0-2-3-------3-2-|
----------------------------------|----------------------------------|

                     (0.23) Chorus 1

  H        H           Q    Q    H           H        E  E  E  E   
--------------------|---------------------|-----------------------|
--------------------|---------------------|-----------------------|
--------------------|---------------------|-----------------------|
--5-----------------|---------------------|-----------------------|
-----------7--------|--0------------------|--------------------2--|
--------------------|---------------------|--------------0--3-----|


  Q    H.              H        E  E  E  E     E  E  E  E  E  E  E  E   
--------------------|-----------------------|--------------------------|
--------------------|-----------------------|--------------------------|
--------------------|-----------------------|-----------4--5--4--------|
--------------------|--5--------2--0--------|--------7-----------7--5--|
--0-----------------|-----------------3--2--|--0--7--------------------|
--------------------|-----------------------|--------------------------|


  Q    Q    Q.     E     E  E  E  E  E  E  E  E     H        H         
----------------------|--------------------------|--------------------|
----------------------|--------------------------|--------------------|
-------5----4---------|-----------4--5--4--------|--------------------|
--7-------------------|--------7-----------7-----|--5-----------------|
----------------------|--0--7-----------------7--|-----------7--------|
-------------------0--|--------------------------|--------------------|



  Q    Q    Q    Q       Q    Q    Q    Q       Q    Q    Q    E  E   
----------------------|----------------------|-----------------------|
----------------------|----------------------|-----------------------|
----------------------|--2-------------------|-----------------------|
-----------------2----|-------2----3----0----|--2---------0----------|
--0----0----3---------|----------------------|-------3---------3--2--|
----------------------|----------------------|-----------------------|





  E  E  E  E  S S E  E  E     E  E  E  E  E  Q    E     W                 
---------------------------|-------------------------|-------------------|
---------------------------|-------------------------|-------------------|
--2------------------------|-------------------------|-------------------|
-----2--3--0--2-2----0-----|-----0-------------------|-------------------|
------------------3-----2--|--3-----3--2--0----------|-------------------|
---------------------------|-------------------------|--3----------------|


                           (0.45) Verse 1

  H        E  E  E  E     E  E  E  E  S S E  E  E     E  E  E  E  S S E  E  E   
-----------------------|---------------------------|---------------------------|
-----------------------|---------------------------|---------------------------|
-----------------------|---------------------------|---------------------------|
-----------2--5--L--2--|--4--4--4--4--4-4-4--4--4--|--4--4--4--4--2-2-5--L--2--|
-----------------------|---------------------------|---------------------------|
--L--------------------|---------------------------|---------------------------|


  E  E  E  E  S S E  E  E     E  E  E  S S S S E  E  E   
---------------------------|----------------------------|
---------------------------|----------------------------|
---------------------------|----------------------------|
--4--4--4--4--4-4-4--4--4--|--4--4--4--4-5-7-7-5--4--0--|
---------------------------|----------------------------|
---------------------------|----------------------------|


  E  E  E  E  S S E  E  E     E  E  E  E  S S E  E  E   
---------------------------|---------------------------|
---------------------------|---------------------------|
---------------------------|---------------------------|
--2--2--2--2--2-2-2--4--2--|--0--0--0--0--0-0-0--0--0--|
---------------------------|---------------------------|
---------------------------|---------------------------|


  E  E  E  E  S S E  E  E     E  S S E  S S E  E  E  E   
---------------------------|----------------------------|
---------------------------|----------------------------|
---------------------------|----------------------------|
---------------------------|----------------2--5--L--2--|
--0--0--0--0--0-0-0--0--0--|--2--2-2-2--2-2-------------|
---------------------------|----------------------------|


  E  E  Q    S S E  Q       E  E  Q    S S E  E  E     E  E  Q    S S E  Q     
-------------------------|--------------------------|-------------------------|
-------------------------|--------------------------|-------------------------|
-------------------------|--------------------------|-------------------------|
--------4-----------4----|--------4----2-2-5--L--2--|--------4-----------4----|
-------------------------|--------------------------|-------------------------|
--2--2-------2-2-2-------|--2--2--------------------|--2--2-------2-2-2-------|


  E  E  E  E  S S E  E  E     E  E  E  E  S S E  E  E   
---------------------------|---------------------------|
---------------------------|---------------------------|
---------------------------|---------------------------|
--------4--4--7-7-5--L--4--|--2--2--2--2--2-2-2--2--2--|
---------------------------|---------------------------|
--2--2---------------------|---------------------------|


  E  E  E  E  S S E  E  E     E  E  E  E  S S E  E  E   
---------------------------|---------------------------|
---------------------------|---------------------------|
---------------------------|---------------------------|
--0--0--0--0--0-0-0--0--0--|---------------------------|
---------------------------|--0--0--0--0--0-0-0--0--0--|
---------------------------|---------------------------|


                               (1.08) Chorus 2

  E  S S E  S S E  S S E  S S    Q    Q    H           H        E  E  E  E   
------------------------------|---------------------|-----------------------|
------------------------------|---------------------|-----------------------|
------------------------------|---------------------|-----------------------|
------------------------------|---------------------|-----------------------|
--2--2-2-2--2-2-2--2-2-2--2-2-|--0------------------|--------------------2--|
------------------------------|---------------------|--------------0--3-----|


  Q    H.              H        E  E  E  E     E  E  E  E  E  E  E  E   
--------------------|-----------------------|--------------------------|
--------------------|-----------------------|--------------------------|
--------------------|-----------------------|-----------4--5--4--------|
--------------------|--5--------2--0--------|--------7-----------7--5--|
--0-----------------|-----------------3--2--|--0--7--------------------|
--------------------|-----------------------|--------------------------|


  Q    Q    Q.     E     E  E  E  E  E  E  E  E     H        H         
----------------------|--------------------------|--------------------|
----------------------|--------------------------|--------------------|
-------5----4---------|-----------4--5--4--------|--------------------|
--7-------------------|--------7-----------7-----|--5-----------------|
----------------------|--0--7-----------------7--|-----------7--------|
-------------------0--|--------------------------|--------------------|


              (1.21) Verse 2

  E  E  E  E     E  E  E  E  S S E  E  E     E  E  E  E  S S E  E  E   
--------------|---------------------------|---------------------------|
--------------|---------------------------|---------------------------|
--------------|---------------------------|---------------------------|
--2--5--L--2--|--4--4--4--4--4-4-4--4--4--|--4--4--4--4--2-2-5--L--2--|
--------------|---------------------------|---------------------------|
--------------|---------------------------|---------------------------|




  E  E  E  E  S S E  E  E     E  E  E  E  S S E  E  E   
---------------------------|---------------------------|
---------------------------|---------------------------|
---------------------------|---------------------------|
--4--4--4--4--4-4-4--4--4--|--4--4--4--4--7-7-5--L--0--|
---------------------------|---------------------------|
---------------------------|---------------------------|


  E  E  E  E  S S E  E  E     E  E  E  E  S S E  E  E   
---------------------------|---------------------------|
---------------------------|---------------------------|
---------------------------|---------------------------|
--2--2--2--2--2-2-2--2--2--|--0--0--0--0--0-0-0--0--0--|
---------------------------|---------------------------|
---------------------------|---------------------------|


  E  E  E  E  S S E  E  E     E  S S E  S S E  E  E  E   
---------------------------|----------------------------|
---------------------------|----------------------------|
---------------------------|----------------------------|
---------------------------|----------------2--5--L--2--|
--0--0--0--0--0-0-0--0--0--|--2--2-2-2--2-2-------------|
---------------------------|----------------------------|


  E  E  Q    S S E  Q       E  E  Q    S S E  E  E     E  E  Q    S S E  Q     
-------------------------|--------------------------|-------------------------|
-------------------------|--------------------------|-------------------------|
-------------------------|--------------------------|-------------------------|
--------4-----------4----|--------4----2-2-5--L--2--|--------4-----------4----|
-------------------------|--------------------------|-------------------------|
--2--2-------2-2-2-------|--2--2--------------------|--2--2-------2-2-2-------|



  E  E  E  S S S S E  E  E     E  E  E  E  S S E  E  E   
----------------------------|---------------------------|
----------------------------|---------------------------|
----------------------------|---------------------------|
--------4--4-5-7-7-5--L--0--|--2--2--2--2--2-2-2--2--2--|
----------------------------|---------------------------|
--2--2----------------------|---------------------------|



  E  E  E  E  S S E  E  E     E  E  E  E  S S E  E  E   
---------------------------|---------------------------|
---------------------------|---------------------------|
---------------------------|---------------------------|
--0--0--0--0--0-0-0--0--0--|---------------------------|
---------------------------|--0--0--0--0--0-0-0--0--0--|
---------------------------|---------------------------|

                               (1.44) Chorus 3

  E  S S E  S S E  S S E  E     Q    Q    H           H        E  E  E  E   
-----------------------------|---------------------|-----------------------|
-----------------------------|---------------------|-----------------------|
-----------------------------|---------------------|--------------------4--|
-----------------------------|---------------------|-----------------5-----|
--2--2-2-2--2-2-2--2-2-2--2--|--0------------------|--------------7--------|
-----------------------------|---------------------|-----------------------|


  Q    H.              H        E  E  E  E     E  E  E  E  E  E  E  E   
--------------------|-----------------------|--------------------------|
--------------------|-----------------------|--------------------------|
--------------------|-----------------------|-----------4--5--4--------|
--7-----------------|--5--------2--0--------|--------7-----------7--5--|
--------------------|-----------------3--2--|--0--7--------------------|
--------------------|-----------------------|--------------------------|



  Q    Q    Q.     E     E  E  E  E  E  E  E  E     H        H         
----------------------|--------------------------|--------------------|
----------------------|--------------------------|--------------------|
-------9----7---------|-----------4--5--4--------|--------------------|
--7-------------------|--------7-----------7--5--|--5-----------------|
----------------------|--0--7--------------------|-----------7--------|
-------------------0--|--------------------------|--------------------|


  Q    Q    Q    Q       Q    Q    Q    E  E     E  E  E  E  S S E  E  E   
----------------------|-----------------------|---------------------------|
----------------------|-----------------------|---------------------------|
----------------------|-----------------------|--2------------------------|
--7-------------------|-----------------------|-----2--3--0--2-2----0-----|
-------7----8----5----|--7----3----5----3--2--|------------------3-----2--|
----------------------|-----------------------|---------------------------|


                          (2.02) Intro again

  E  E  E  E  E  Q.        S S S S S S S S S S S S S S S S  
------------------------|----------------------------------|
------------------------|----------------------------------|
------------------------|----------------------------------|
-----0------------------|------------------------0-2-0-----|
--3-----3--2--0---------|--0-0-0-0-0-0-0-0-0-2-3-------3-2-|
------------------------|----------------------------------|


  S S S S S S S S S S S S S S S S    S S S S S S S S S S S S S S S S  
----------------------------------|----------------------------------|
----------------------------------|----------------------------------|
----------------------------------|----------------------------------|
------------------2-3-2-0-2-0-----|------------------------0-2-0-----|
--0-0-0-0-0-0-0-0-------------3-2-|--0-0-0-0-0-0-0-0-0-2-3-------3-2-|
----------------------------------|----------------------------------|


  H        H           S S S S S S S S S S S S S S S S  
--------------------|----------------------------------|
--------------------|----------------------------------|
--------------------|----------------------------------|
--5-----------------|------------------------0-2-0-----|
-----------7--------|--0-0-0-0-0-0-0-0-0-2-3-------3-2-|
--------------------|----------------------------------|


  S S S S S S S S S S S S S S S S    S S S S S S S S S S S S S S S S  
----------------------------------|----------------------------------|
----------------------------------|----------------------------------|
----------------------------------|----------------------------------|
------------------2-3-2-0-2-0-----|------------------------0-2-0-----|
--0-0-0-0-0-0-0-0-------------3-2-|--0-0-0-0-0-0-0-0-0-2-3-------3-2-|
----------------------------------|----------------------------------|


                      (2.14) 12/8 section: Bridge

                       |--3--|  |--3--|  |--3--|  |--3--|   
  H        H           E  E  E  E  E  E  E  E  E  E  E  E   
--------------------|--------------------------------------|
--------------------|--------------------------------------|
--------------------|--------------------------------------|
--5-----------------|--------------------------------------|
-----------7--------|--0--0--0--0--0--0--0--0--0--0--0--0--|
--------------------|--------------------------------------|


  |--3--|  |--3--|  |--3--|  |--3--|     |--3--|  |--3--|  |--3--|  |--3--|   
  E  E  E  E  E  E  E  E  E  E  E  E     E  E  E  E  E  E  E  E  E  E  E  E   
--------------------------------------|--------------------------------------|
--------------------------------------|--------------------------------------|
--------------------------------------|--------------------------------------|
--3--3--3--3--3--3--3--3--3--3--3--3--|--------------------------------------|
--------------------------------------|--3--3--3--3--3--3--3--3--3--3--3--3--|
--------------------------------------|--------------------------------------|


  |--3--|  |--3--|  |--3--|  |--3--|     |--3--|  |--3--|  |--3--|  |--3--|   
  E  E  E  E  E  E  E  E  E  E  E  E     E  E  E  E  E  E  E  E  E  E  E  E   
--------------------------------------|--------------------------------------|
--------------------------------------|--------------------------------------|
--------------------------------------|--------------------------------------|
--5--5--5--5--5--5--5--5--5--5--5--5--|--7--7--7--7--7--7--5--5--5--5--5--5--|
--------------------------------------|--------------------------------------|
--------------------------------------|--------------------------------------|


  |--3--|  |--3--|  |--3--|  |--3--|     |--3--|  |--3--|  |--3--|  |--3--|   
  E  E  E  E  E  E  E  E  E  E  E  E     E  E  E  E  E  E  E  E  E  E  E  E   
--------------------------------------|--------------------------------------|
--------------------------------------|--------------------------------------|
--------------------------------------|--------------------------------------|
--4--4--4--4--4--4--0--0--0--0--0--0--|--3--3--3--3--3--3--3--3--3--3--3--3--|
--------------------------------------|--------------------------------------|
--------------------------------------|--------------------------------------|

                                        (2.26) Operatic Female voice enters

  |--3--|  |--3--|  |--3--|  |--3--|     |--3--|  |--3--|  |--3--|  |--3--|   
  E  E  E  E  E  E  E  E  E  E  E  E     E  E  E  E  E  E  E  E  E  E  E  E   
--------------------------------------|--------------------------------------|
--------------------------------------|--------------------------------------|
--------------------------------------|--------------------------------------|
--3--3--3--3--3--3--3--3--3--3--3--3--|--------------------------------------|
--------------------------------------|--2--2--2--2--2--2--2--2--2--2--2--2--|
--------------------------------------|--------------------------------------|


  |--3--|  |--3--|  |--3--|  |--3--|     |--3--|  |--3--|  |--3--|  |--3--|   
  E  E  E  E  E  E  E  E  E  E  E  E     E  E  E  E  E  E  E  E  E  E  E  E   
--------------------------------------|--------------------------------------|
--------------------------------------|--------------------------------------|
--------------------------------------|--------------------------------------|
--------------------------------------|--------------------------------------|
--2--2--2--2--2--2--2--2--2--2--2--2--|--2--2--2--2--2--2--2--2--2--2--2--2--|
--------------------------------------|--------------------------------------|


  |----3----|    |----3----|       |--3--|  |--3--|  |--3--|  |--3--|   
  Q    Q    Q    Q    Q    Q       E  E  E  E  E  E  E  E  E  E  E  E   
--------------------------------|--------------------------------------|
--------------------------------|--------------------------------------|
--------------------------------|--------------------------------------|
--------------------------------|--------------------------------------|
--------------------------------|--2--2--2--2--2--2--2--2--2--2--2--2--|
--0----0----0----3----3----3----|--------------------------------------|


  |--3--|  |--3--|  |--3--|  |--3--|     |--3--|  |--3--|  |--3--|  |--3--|   
  E  E  E  E  E  E  E  E  E  E  E  E     E  E  E  E  E  E  E  E  E  E  E  E   
--------------------------------------|--------------------------------------|
--------------------------------------|--------------------------------------|
--------------------------------------|--------------------------------------|
--------------------------------------|--------------------------------------|
--2--2--2--2--2--2--2--2--2--2--2--2--|--2--2--2--2--2--2--2--2--2--2--2--2--|
--------------------------------------|--------------------------------------|

  
                                   (2.38) Riff


  |----3----|    |----3----|       |--3--|  |--3--|  |--3--|        
  Q    Q    Q    Q    Q    Q       E  E  E  E  E  E  E  E  E  Q     
--------------------------------|----------------------------------|
--------------------------------|----------------------------------|
--------------------------------|----------------------------------|
--------------------------------|----------------------------------|
--------------------------------|--2--2--2--2--2--2--5--4--2--4----|
--0----0----0----3----3----3----|----------------------------------|


  |--3--|  |--3--|  |--3--|  |--3--|     |--3--|  |--3--|  |--3--|        
  E  E  E  E  E  E  E  E  E  E  E  E     E  E  E  E  E  E  E  E  E  Q     
--------------------------------------|----------------------------------|
--------------------------------------|----------------------------------|
--------------------------------------|----------------------------------|
-----------------------------------2--|----------------------------------|
--0--0--0--0--0--0--5--0--0--4--5-----|--2--2--2--2--2--2--5--4--2--4----|
--------------------------------------|----------------------------------|


  |--3--|  |--3--|  |--3--|  |--3--|     |--3--|                
  E  E  E  E  E  E  E  E  E  E  E  E     E  E  E  H.            
--------------------------------------|------------------------|
--------------------------------------|------------------------|
--------------------------------------|------------------------|
--------------------------------------|------------------------|
--0--0--0--0--0--0--5--0--0--4--5--0--|--2-----2---------------|
--------------------------------------|------------------------|


                                  (2.48)

  |--3--|  |--3--|               |--3--|  |--3--|  |--3--|  |--3--|   
  E  E  E  E  E  E  Q    Q       E  E  E  E  E  E  E  E  E  E  E  E   
------------------------------|--------------------------------------|
------------------------------|--------------------------------------|
------------------------------|--------------------------------------|
-------------------------4----|--5--5--5--5--5--5--5--5--5--5--5--5--|
--0--0--0--0--0--0--5---------|--------------------------------------|
------------------------------|--------------------------------------|


  |--3--|  |--3--|  |--3--|  |--3--|     |--3--|  |--3--|  |--3--|  |--3--|   
  E  E  E  E  E  E  E  E  E  E  E  E     E  E  E  E  E  E  E  E  E  E  E  E   
--------------------------------------|--------------------------------------|
--------------------------------------|--------------------------------------|
--------------------------------------|--------------------------------------|
--7--7--7--7--7--7--7--7--7--7--7--7--|--4--4--4--4--4--4--4--4--4--4--4--4--|
--------------------------------------|--------------------------------------|
--------------------------------------|--------------------------------------|


  |--3--|  |--3--|  |--3--|  |--3--|     |--3--|  |--3--|  |--3--|  |--3--|   
  E  E  E  E  E  E  E  E  E  E  E  E     E  E  E  E  E  E  E  E  E  E  E  E   
--------------------------------------|--------------------------------------|
--------------------------------------|--------------------------------------|
--------------------------------------|--------------------------------------|
--5--5--5--5--5--5--5--5--5--5--5--5--|--5--5--5--5--5--5--5--5--5--5--5--5--|
--------------------------------------|--------------------------------------|
--------------------------------------|--------------------------------------|


  |--3--|  |--3--|  |--3--|  |--3--|     |--3--|  |--3--|  |--3--|  |---3--|   
  E  E  E  E  E  E  E  E  E  E  E  E     E  E  E  E  E  E  E  E  E  E  E   E   
--------------------------------------|---------------------------------------|
--------------------------------------|---------------------------------------|
--------------------------------------|---------------------------------------|
--7--7--7--7--7--7--7--7--7--7--7--7--|--8--8--8--8--8--8--8--8--8--8--9--11--|
--------------------------------------|---------------------------------------|
--------------------------------------|---------------------------------------|


  |--3--|  |--3--|   |---3---|   |---3---|   
  E  E  E  E  E  E   E   E   E   E   E   E   
--------------------------------------------|
--------------------------------------------|
--------------------------------------------|
--9--9--9--9--9--9--12--12--11--11--11--11--|
--------------------------------------------|
--------------------------------------------|


  |--3--|  |--3--|  |--3--|  |--3--|     |--3--|  |--3--|  |--3--|  |--3--|   
  E  E  E  E  E  E  E  E  E  E  E  E     E  E  E  E  E  E  E  E  E  E  E  E   
--------------------------------------|--------------------------------------|
--------------------------------------|--------------------------------------|
--------------------------------------|--------------------------------------|
--------------------------------------|--------------------------------------|
--------------------------------------|--0--0--0--0--0--0--0--0--0--0--0--0--|
--3--3--3--3--3--3--3--3--3--3--3--3--|--------------------------------------|


  |--3--|  |--3--|  |--3--|  |--3--|     |--3--|  |--3--|  |--3--|  |--3--|   
  E  E  E  E  E  E  E  E  E  E  E  E     E  E  E  E  E  E  E  E  E  E  E  E   
--------------------------------------|--------------------------------------|
--------------------------------------|--------------------------------------|
--------------------------------------|--------------------------------------|
--------------------------------------|--------------------------------------|
--------------------------------------|--------------------------------------|
--2--2--2--2--2--2--2--2--2--2--2--2--|--3--3--3--3--3--3--3--3--3--3--3--3--|


  |--3--|  |--3--|  |--3--|  |--3--|     |--3--|  |--3--|  |--3--|  |--3--|   
  E  E  E  E  E  E  E  E  E  E  E  E     E  E  E  E  E  E  E  E  E  E  E  E   
--------------------------------------|--------------------------------------|
--------------------------------------|--------------------------------------|
--------------------------------------|--------------------------------------|
--------------------------------------|--------------------------------------|
--------------------------------------|--0--0--0--0--0--0--0--0--0--0--0--0--|
--3--3--3--3--3--3--3--3--3--3--3--3--|--------------------------------------|


  |--3--|  |--3--|  |--3--|  |--3--|     |--3--|  |--3--|  |--3--|  |--3--|   
  E  E  E  E  E  E  E  E  E  E  E  E     E  E  E  E  E  E  E  E  E  E  E  E   
--------------------------------------|--------------------------------------|
--------------------------------------|--------------------------------------|
--------------------------------------|--------------------------------------|
--------------------------------------|--------------------------------------|
--1-----1-----1-----1-----1-----1-----|--1-----1-----1-----1-----1-----1-----|
--------------------------------------|--------------------------------------|



(3.12)
                                              |--3--|          --- 
  Q    Q    H           H        E  Q.        E  E  E  Q           
---------------------|---------------------|----------------|-----|
---------------------|---------------------|----------------|-----|
---------------------|---------------------|----------------|-----|
---------------------|---------------------|----------------|-----|
--0----0-------------|-----------3--2------|--0--0--0--0----|-----|
---------------------|---------------------|----------------|-----|

                           (3.19)  'Who are you to walk across the graves....'


                           |--3--|  |--3--|  |--3--|  |--3--|   
  H        H.              E  E  E  E  E  E  E  E  E  E  E  E   
------------------------|--------------------------------------|
------------------------|--------------------------------------|
------------------------|--------------------------------------|
-----------1------------|-----------0-----------------0--------|
------------------------|--2--3--4-----4--3--2--3--4-----4--3--|
------------------------|--------------------------------------|


  |--3--|  |--3--|  |--3--|  |--3--|     |--3--|  |--3--|  |--3--|  |--3--|   
  E  E  E  E  E  E  E  E  E  E  E  E     E  E  E  E  E  E  E  E  E  E  E  E   
--------------------------------------|--------------------------------------|
--------------------------------------|--------------------------------------|
--------------------------------------|--------------------------------------|
-----------0-----------------0--------|-----------0-----------------0--------|
--2--3--4-----4--3--2--3--4-----4--3--|--2--3--4-----4--3--2--3--4-----4--3--|
--------------------------------------|--------------------------------------|


  |--3--|  |--3--|  |--3--|  |--3--|     |--3--|  |--3--|  |--3--|  |--3--|   
  E  E  E  E  E  E  E  E  E  E  E  E     E  E  E  E  E  E  E  E  E  E  E  E   
--------------------------------------|--------------------------------------|
--------------------------------------|--------------------------------------|
--------------------------------------|--------------------------------------|
-----------0-----------------0--------|--------------------------------------|
--2--3--4-----4--3--2--3--4-----4--3--|--3--------3--3--3--3--------3--3--3--|
--------------------------------------|--------------------------------------|


  |--3--|  |--3--|  |--3--|  |--3--|     |--3--|  |--3--|  |--3--|  |--3--|   
  E  E  E  E  E  E  E  E  E  E  E  E     E  E  E  E  E  E  E  E  E  E  E  E   
--------------------------------------|--------------------------------------|
--------------------------------------|--------------------------------------|
--------------------------------------|--------------------------------------|
--3--3--3--2--------3--3--3--2--------|-----------0-----------------0--------|
--------------------------------------|--2--3--4-----4--3--2--3--4-----4--3--|
--------------------------------------|--------------------------------------|


  |--3--|  |--3--|  |--3--|  |--3--|     |--3--|  |--3--|  |--3--|  |--3--|   
  E  E  E  E  E  E  E  E  E  E  E  E     E  E  E  E  E  E  E  E  E  E  E  E   
--------------------------------------|--------------------------------------|
--------------------------------------|--------------------------------------|
--------------------------------------|--------------------------------------|
-----------0-----------------0--------|-----------0-----------------0--------|
--2--3--4-----4--3--2--3--4-----4--3--|--2--3--4-----4--3--2--3--4-----4--3--|
--------------------------------------|--------------------------------------|


  |--3--|  |--3--|  |--3--|  |--3--|     |--3--|  |--3--|  |--3--|  |--3--|   
  E  E  E  E  E  E  E  E  E  E  E  E     E  E  E  E  E  E  E  E  E  E  E  E   
--------------------------------------|--------------------------------------|
--------------------------------------|--------------------------------------|
--------------------------------------|--------------------------------------|
-----------0-----------------0--------|-----------0-----------------0--------|
--2--3--4-----4--3--2--3--4-----4--3--|--2--3--4-----4--3--2--3--4-----4--3--|
--------------------------------------|--------------------------------------|


  |--3--|  |--3--|  |--3--|  |--3--|     |--3--|  |--3--|  |--3--|  |--3--|   
  E  E  E  E  E  E  E  E  E  E  E  E     E  E  E  E  E  E  E  E  E  E  E  E   
--------------------------------------|--------------------------------------|
--------------------------------------|--------------------------------------|
--------------------------------------|--------------------------------------|
-----------0-----------------0--------|--------------------------------------|
--2--3--4-----4--3--2--3--4-----4--3--|--3--------3--3--3--3--------3--3--3--|
--------------------------------------|--------------------------------------|


               (3.41) Osiris?

  ---   ---     |--3--|  |--3--|  |--3--|  |--3--|   
                E  E  E  E  E  E  E  E  E  E  E  E   
-----|-----||---------------------------------------|
-----|-----||---------------------------------------|
-----|-----||*--------------------------------------|
-----|-----||*--------------------------------------|
-----|-----||---------------------------------------|
-----|-----||---0--0--0--0-----------0--0--0--0-----|


  |--3--|  |--3--|  |--3--|  |--3--|     |--3--|  |--3--|  |--3--|  |--3--|   
  E  E  E  E  E  E  E  E  E  E  E  E     E  E  E  E  E  E  E  E  E  E  E  E   
--------------------------------------|--------------------------------------|
--------------------------------------|--------------------------------------|
--------------------------------------|--------------------------------------|
--------------------------------------|--------------------------------------|
--------------------------------------|--------------------------------------|
--0--0--0--0-----------0--0--0--0-----|--0--0--0--0-----------0--0--0--0--0--|

                                            (4.07)
  |--3--|  |--3--|  |--3--|  |--3--|                            
  E  E  E  E  E  E  E  E  E  E  E  E   4x  Q    Q    Q    Q     
---------------------------------------||----------------------|
---------------------------------------||----------------------|
--------------------------------------*||--2-------------------|
--------------------------------------*||-------2----3----0----|
---------------------------------------||----------------------|
--5-----5-----5-----3-----3-----3------||----------------------|


                           Vocals Enter

  Q    Q    E  E  E  E     E  E  E  E  E  E  Q       E  E  Q    E  Q    E   
------------------------|-------------------------|------------------------|
------------------------|-------------------------|------------------------|
------------------------|-------------------------|------------------------|
--2---------0--3--L--0--|-------------------------|----------------3-------|
-------3----------------|-------------------------|-------------5-------5--|
------------------------|--0--0--0--0--0--0--0----|--0--0--0---------------|


                                       |----3----|     
  E  E  E  E  E  E  Q       E  E  Q    Q    Q    Q     
-------------------------|----------------------------|
-------------------------|----------------------------|
-------------------------|----------------------------|
-------------------------|-------------5----3----2----|
-------------------------|----------------------------|
--0--0--0--0--0--0--0----|--0--0--0-------------------|


  E  E  E  E  E  E  E  E     E  E  E  E  E  E  E  E   
--------------------------|--------------------------|
--------------------------|--------------------------|
--------------------------|--------------------------|
--0--0--0--0--0--0--0--0--|--------------------------|
--------------------------|--3--3--3--3--3--3--3--3--|
--------------------------|--------------------------|


  E  E  E  E  E  E  E  E     E  S S E  S S E  E  E  E   
--------------------------|----------------------------|
--------------------------|----------------------------|
--------------------------|----------------------------|
--------------------------|-------------------3--L-----|
--------------------------|--0--0-0-0--0-0-5--------5--|
--3--3--3--3--3--3--3--3--|----------------------------|


  E  E  E  E  E  E  Q       E  E  Q    E  Q    E     E  E  E  E  E  E  Q     
-------------------------|------------------------|-------------------------|
-------------------------|------------------------|-------------------------|
-------------------------|------------------------|-------------------------|
-------------------------|----------------3-------|-------------------------|
-------------------------|-------------5-------5--|-------------------------|
--0--0--0--0--0--0--0----|--0--0--0---------------|--0--0--0--0--0--0--0----|

                                   (4.29)
           |-3-| |----3----|                                
  E  E  E  S S S Q    Q    Q       E  E  E  E  E  E  E  E   
--------------------------------|--------------------------|
--------------------------------|--------------------------|
--------------------------------|--------------------------|
-----------------5----3----2----|--0--0--0--0--0--0--0--0--|
--------------------------------|--------------------------|
--0--0--0--0-0-0----------------|--------------------------|


  E  E  E  E  E  E  E  E     E  E  E  E  E  E  E  E   
--------------------------|--------------------------|
--------------------------|--------------------------|
--------------------------|--------------------------|
--------------------------|--------------------------|
--3--3--3--3--3--3--3--3--|--------------------------|
--------------------------|--3--3--3--3--3--3--3--3--|


  E  E  E  E  E  E  E  E     E  E  E  E  E  Q.      
--------------------------|------------------------|
--------------------------|------------------------|
--2-----------------------|------------------------|
-----2--3--0--2-----0-----|-----0------------------|
-----------------3-----2--|--3-----3--2--0---------|
--------------------------|------------------------|


(4.37) Intro 3.0

  S S S S S S S S S S S S S S S S    S S S S S S S S S S S S S S S S  
----------------------------------|----------------------------------|
----------------------------------|----------------------------------|
----------------------------------|----------------------------------|
------------------------0-2-0-----|------------------2-3-2-0-2-0-----|
--0-0-0-0-0-0-0-0-0-2-3-------3-2-|--0-0-0-0-0-0-0-0-------------3-2-|
----------------------------------|----------------------------------|


  S S S S S S S S S S S S S S S S    H        H         
----------------------------------|--------------------|
----------------------------------|--------------------|
----------------------------------|--------------------|
------------------------0-2-0-----|--5-----------------|
--0-0-0-0-0-0-0-0-0-2-3-------3-2-|-----------7--------|
----------------------------------|--------------------|


  S S S S S S S S S S S S S S S S    S S S S S S S S S S S S S S S S  
----------------------------------|----------------------------------|
----------------------------------|----------------------------------|
----------------------------------|----------------------------------|
------------------------0-2-0-----|------------------2-3-2-0-2-0-----|
--0-0-0-0-0-0-0-0-0-2-3-------3-2-|--0-0-0-0-0-0-0-0-------------3-2-|
----------------------------------|----------------------------------|


  S S S S S S S S S S S S S S S S    H        H         
----------------------------------|--------------------|
----------------------------------|--------------------|
----------------------------------|--------------------|
------------------------0-2-0-----|--5-----------------|
--0-0-0-0-0-0-0-0-0-2-3-------3-2-|-----------7--------|
----------------------------------|--------------------|


  S S S S S S S S S S S S S S S S    S S S S S S S S S S S S S S S S  
----------------------------------|----------------------------------|
----------------------------------|----------------------------------|
----------------------------------|----------------------------------|
------------------------0-2-0-----|------------------2-3-2-0-2-0-----|
--0-0-0-0-0-0-0-0-0-2-3-------3-2-|--0-0-0-0-0-0-0-0-------------3-2-|
----------------------------------|----------------------------------|


  S S S S S S S S S S S S S S S S    H        H         
----------------------------------|--------------------|
----------------------------------|--------------------|
----------------------------------|--------------------|
------------------------0-2-0-----|--5-----------------|
--0-0-0-0-0-0-0-0-0-2-3-------3-2-|-----------7--------|
----------------------------------|--------------------|


  S S S S S S S S S S S S S S S S    S S S S S S S S S S S S S S S S  
----------------------------------|----------------------------------|
----------------------------------|----------------------------------|
----------------------------------|----------------------------------|
------------------------0-2-0-----|------------------2-3-2-0-2-0-----|
--0-0-0-0-0-0-0-0-0-2-3-------3-2-|--0-0-0-0-0-0-0-0-------------3-2-|
----------------------------------|----------------------------------|

                                    (5.01) Outro 

  S S S S S S S S S S S S S S S S    H        H           H.           Q     
----------------------------------|--------------------|--------------------|
----------------------------------|--------------------|--------------------|
----------------------------------|--------------------|--------------------|
------------------------0-2-0-----|--5-----------------|--7-----------------|
--0-0-0-0-0-0-0-0-0-2-3-------3-2-|-----------7--------|---------------7----|
----------------------------------|--------------------|--------------------|


  W                    H.           Q       W                 
-------------------|---------------------|-------------------|
-------------------|---------------------|-------------------|
-------------------|---------------------|-------------------|
-------------------|--10-----------------|--5----------------|
--8----------------|----------------7----|-------------------|
-------------------|---------------------|-------------------|


               |---3---|                                             
  H.           E   E   E      H        H           W                 
---------------------------|--------------------|-------------------|
---------------------------|--------------------|-------------------|
---------------------------|--------------------|-------------------|
--7------------5S--7S--5S--|--4--------0--------|--3----------------|
---------------------------|--------------------|-------------------|
---------------------------|--------------------|-------------------|


  H        Q    Q       H.           Q       W                 
---------------------|--------------------|-------------------|
---------------------|--------------------|-------------------|
---------------------|--------------------|-------------------|
--L--------0----2----|--------------------|-------------------|
---------------------|--0------------7----|--8----------------|
---------------------|--------------------|-------------------|


  H        H           W                   H        H         
--------------------|-------------------|--------------------|
--------------------|-------------------|--------------------|
--------------------|-------------------|--------------------|
-----------2--------|--5----------------|--7--------5--------|
--3-----------------|-------------------|--------------------|
--------------------|-------------------|--------------------|


                                           |----3----|    |----3----|     
  H        H           W                   Q    Q    Q    Q    Q    Q     
--------------------|-------------------|--------------------------------|
--------------------|-------------------|--------------------------------|
--------------------|-------------------|--------------------------------|
--4--------0--------|--3----------------|--3----2----0-------------------|
--------------------|-------------------|-----------------3----2----3----|
--------------------|-------------------|--------------------------------|


(5.28) WAAAITING


  |--3--|  |--3--|  |--3--|  |--3--|     |--3--|  |--3--|  |--3--|  |--3--|   
  E  E  E  E  E  E  E  E  E  E  E  E     E  E  E  E  E  E  E  E  E  E  E  E   
--------------------------------------|--------------------------------------|
--------------------------------------|--------------------------------------|
--------------------------------------|--------------------------------------|
--------------------------------------|--3--3--3--3--3--3--3--3--3--3--3--3--|
--0--0--0--0--0--0--0--0--0--3--3--3--|--------------------------------------|
--------------------------------------|--------------------------------------|


  |--3--|  |--3--|  |--3--|  |--3--|     |--3--|  |--3--|  |--3--|  |--3--|   
  E  E  E  E  E  E  E  E  E  E  E  E     E  E  E  E  E  E  E  E  E  E  E  E   
--------------------------------------|--------------------------------------|
--------------------------------------|--------------------------------------|
--------------------------------------|--------------------------------------|
--------------------------------------|--5--5--5--5--5--5--5--5--5--5--5--5--|
--3--3--3--3--3--3--3--3--3--3--3--3--|--------------------------------------|
--------------------------------------|--------------------------------------|


  |--3--|  |--3--|  |--3--|  |--3--|     |--3--|  |--3--|  |--3--|  |--3--|   
  E  E  E  E  E  E  E  E  E  E  E  E     E  E  E  E  E  E  E  E  E  E  E  E   
--------------------------------------|--------------------------------------|
--------------------------------------|--------------------------------------|
--------------------------------------|--------------------------------------|
--7--7--7--7--7--7--5--5--5--5--5--5--|--4--4--4--4--4--4--0--0--0--0--0--0--|
--------------------------------------|--------------------------------------|
--------------------------------------|--------------------------------------|


  |--3--|  |--3--|  |--3--|  |--3--|     |--3--|  |--3--|  |--3--|  |--3--|   
  E  E  E  E  E  E  E  E  E  E  E  E     E  E  E  E  E  E  E  E  E  E  E  E   
--------------------------------------|--------------------------------------|
--------------------------------------|--------------------------------------|
--------------------------------------|--------------------------------------|
--3--3--3--3--3--3--3--3--3--3--3--3--|--3--3--3--2--2--2--------------------|
--------------------------------------|--------------------3--3--3--2--2--2--|
--------------------------------------|--------------------------------------|


(5.40)

  |--3--|  |--3--|  |--3--|  |--3--|     |--3--|  |--3--|  |--3--|  |--3--|   
  E  E  E  E  E  E  E  E  E  E  E  E     E  E  E  E  E  E  E  E  E  E  E  E   
--------------------------------------|--------------------------------------|
--------------------------------------|--------------------------------------|
--------------------------------------|--------------------------------------|
--------------------------------------|--3--3--3--3--3--3--3--3--3--3--3--3--|
--0--0--0--0--0--0--0--0--0--3--3--3--|--------------------------------------|
--------------------------------------|--------------------------------------|


  |--3--|  |--3--|  |--3--|  |--3--|     |--3--|  |--3--|  |--3--|  |--3--|   
  E  E  E  E  E  E  E  E  E  E  E  E     E  E  E  E  E  E  E  E  E  E  E  E   
--------------------------------------|--------------------------------------|
--------------------------------------|--------------------------------------|
--------------------------------------|--------------------------------------|
--------------------------------------|--5--5--5--5--5--5--5--5--5--5--5--5--|
--3--3--3--3--3--3--3--3--3--3--3--3--|--------------------------------------|
--------------------------------------|--------------------------------------|


  |--3--|  |--3--|  |--3--|  |--3--|     |--3--|  |--3--|  |--3--|  |--3--|   
  E  E  E  E  E  E  E  E  E  E  E  E     E  E  E  E  E  E  E  E  E  E  E  E   
--------------------------------------|--------------------------------------|
--------------------------------------|--------------------------------------|
--------------------------------------|--------------------------------------|
--7--7--7--7--7--7--5--5--5--5--5--5--|--4--4--4--4--4--4--0--0--0--0--0--0--|
--------------------------------------|--------------------------------------|
--------------------------------------|--------------------------------------|


  |--3--|  |--3--|  |--3--|  |--3--|     |--3--|  |--3--|  |--3--|  |--3--|   
  E  E  E  E  E  E  E  E  E  E  E  E     E  E  E  E  E  E  E  E  E  E  E  E   
--------------------------------------|--------------------------------------|
--------------------------------------|--------------------------------------|
--------------------------------------|--------------------------------------|
--3--3--3--3--3--3--3--3--3--3--3--3--|--3--3--3--2--2--2--------------------|
--------------------------------------|--------------------3--3--3--2--2--2--|
--------------------------------------|--------------------------------------|


(5.52)

  |--3--|  |--3--|  |--3--|  |--3--|     |--3--|  |--3--|  |--3--|  |--3--|   
  E  E  E  E  E  E  E  E  E  E  E  E     E  E  E  E  E  E  E  E  E  E  E  E   
--------------------------------------|--------------------------------------|
--------------------------------------|--------------------------------------|
--------------------------------------|--------------------------------------|
--------------------------------------|--------------------------------------|
--0-----0-----0--0--0-----0-----0--0--|--------------------------------------|
--------------------------------------|--1-----1-----1--1--1-----1-----1--1--|


  |--3--|  |--3--|  |--3--|  |--3--|     |--3--|  |--3--|  |--3--|  |--3--|   
  E  E  E  E  E  E  E  E  E  E  E  E     E  E  E  E  E  E  E  E  E  E  E  E   
--------------------------------------|--------------------------------------|
--------------------------------------|--------------------------------------|
--------------------------------------|--------------------------------------|
--------------------------------------|--------------------------------------|
--3-----3-----3--3--3-----3-----3--3--|--------------------------------------|
--------------------------------------|--3-----3-----3--3--3-----3-----3--3--|


  |--3--|  |--3--|  |--3--|  |--3--|     |--3--|  |--3--|  |----3----|     
  E  E  E  E  E  E  E  E  E  E  E  E     E  E  E  E  E  E  Q    Q    Q     
--------------------------------------|-----------------------------------|
--------------------------------------|-----------------------------------|
--------------------------------------|-----------------------------------|
--------------------------------------|-----------------------------------|
--------------------------------------|-------------------------0----3----|
--5-----5--5--5--5--3-----3-----3--3--|--2--2-----2--2--2--1--------------|


  |--3--|  |--3--|  |--3--|  |--3--|     |--3--|  |--3--|  |--3--|  |--3--|   
  E  E  E  E  E  E  E  E  E  E  E  E     E  E  E  E  E  E  E  E  E  E  E  E   
--------------------------------------|--------------------------------------|
--------------------------------------|--------------------------------------|
--------------------------------------|--------------------------------------|
--3--3--3--3--3--3--3--3--3--3--3--3--|--3--3--3--3--3--3--------------------|
--------------------------------------|--------------------3--3--3--2--2--2--|
--------------------------------------|--------------------------------------|


(6.04)

  |--3--|  |--3--|  |--3--|  |--3--|     |--3--|  |--3--|  |--3--|  |--3--|   
  E  E  E  E  E  E  E  E  E  E  E  E     E  E  E  E  E  E  E  E  E  E  E  E   
--------------------------------------|--------------------------------------|
--------------------------------------|--------------------------------------|
--------------------------------------|--------------------------------------|
--------------------------------------|--3--3--3--3--3--3--3--3--3--3--3--3--|
--0--0--0--0--0--0--0--0--0--3--3--3--|--------------------------------------|
--------------------------------------|--------------------------------------|


  |--3--|  |--3--|  |--3--|  |--3--|     |--3--|  |--3--|  |--3--|  |--3--|   
  E  E  E  E  E  E  E  E  E  E  E  E     E  E  E  E  E  E  E  E  E  E  E  E   
--------------------------------------|--------------------------------------|
--------------------------------------|--------------------------------------|
--------------------------------------|--------------------------------------|
--------------------------------------|--5--5--5--5--5--5--5--5--5--5--5--5--|
--3--3--3--3--3--3--3--3--3--3--3--3--|--------------------------------------|
--------------------------------------|--------------------------------------|


                                         rit.                          
  |--3--|  |--3--|  |--3--|  |--3--|     |---3---|  |--3--|            
  E  E  E  E  E  E  E  E  E  E  E  E     E    E  E  E  E  E  H         
--------------------------------------|-------------------------------|
--------------------------------------|-------------------------------|
--------------------------------------|-------------------------------|
--7--7--7--7--7--7--5--5--5--5--5--5--|--4----4--4--4--4--4--0--------|
--------------------------------------|-------------------------------|
--------------------------------------|-------------------------------|


(6.14) - Open...                 wait...                                
  W                   W                   H        H         
-------------------|-------------------|--------------------|
-------------------|-------------------|--------------------|
-------------------|-------------------|--------------------|
-------------------|-------------------|--------------------|
-------------------|-------------------|--5--------7--------|
--1----------------|--L----------------|--------------------|


  W                   W                  
-------------------|-------------------||
-------------------|-------------------||
-------------------|-------------------||
-------------------|-------------------||
--0----------------|--L----------------||
-------------------|-------------------||




Duration Legend
---------------
W - whole
H - half
Q - quarter
E - 8th
S - 16th
T - 32nd
X - 64th
. - note dotted
|-n-|  - n-tuplets


Tablature Legend
----------------
L - tied note
x - dead note
g - grace note
(n) - ghost note
> - accentuded note
NH - natural harmonic
AH - artificial harmonic
TH - tapped harmonic
SH - semi harmonic
PH - pitch harmonic
h - hammer on
p - pull off
b - bend
br - bendRelease
pb - preBend
pbr - preBendRelease
brb - bendReleaseBend
\n/ - tremolo bar dip
\n - tremolo bar dive
-/n - tremolo bar Release up
/n\ - tremolo bar inverted dip
/n - tremolo bar return
-\n - tremolo bar Release down
S - shift slide
s - legato slide
/ -  slide into from below or out of upwards
\ -  slide into from above or out of downwards
~ - vibrato
W - wide vibrato
tr - trill
TP - tremolo picking
T - tapping
S - slap
P - pop
< - fade in
^ - brush up
v - brush down

            
            
Suggest correction
Creating personal tab
Creating personal tab
You can edit any tab online and save it as your Personal.

You can edit, replace or remove any tab part or add personal notes – all changes will be seen only by you.

Personal tabs can be accessed anytime from any device, even offline.
Learn more »
Give kudos to tab author, rate the tab!
1 2 3 4 5
comments
print report bad tab
guest
You may want to rate the tab now too:
select rating
Wanna post a correction for this tab? Suggest correction