Oops, an error
Loading. Please wait.

The Prophecy Of Pleiades bass

version 1
version 1

Whole song

Interactive

58 views 1 this week
no commentswrite comment
1 2 3 4 5
3 more votes to show rating
add to favorites
×
Save as Personal and add changes to this tab that will be seen only by you. Learn more ›
×
You can save this tab as Personal to edit and correct it or add notes. All changes will be seen only by you. Learn more »
launch autoscroll
font size
0
reset
guitar tuner
edit
Autoscroll
slow
fast
+/-
esc
set tempo
stop
Author
Difficulty
                           The Prophecy of Pleiades                             

                             Pagan's Mind

(0.47) Chug
     Q    Q    E  E  Q    Q    Q       Q    Q    E  E  Q    Q    Q     
C||---------------------------------|---------------------------------|
G||---------------------------------|---------------------------------|
D||---------------------------------|---------------------------------|
A||---------------------------------|---------------------------------|
E||---------------------------------|---------------------------------|
B||--0----0-------0--0----0---------|--0----0-------0--0----0---------|


  Q    E  Q    E  Q    H           Q.     E  E  E  Q    Q    Q     
--------------------------------|---------------------------------|
--------------------------------|---------------------------------|
--------------------------------|---------------------------------|
--------------------------------|---------------------------------|
--1----1-------1--1----1--------|--1------1-----1--1----3----1----|
--------------------------------|---------------------------------|


  Q    Q    E  E  Q    Q    Q       Q    Q    E  E  Q    Q    Q     
---------------------------------|---------------------------------|
---------------------------------|---------------------------------|
---------------------------------|---------------------------------|
---------------------------------|---------------------------------|
---------------------------------|---------------------------------|
--3----3-------3--3----3---------|--3----3-------3--3----3---------|


  Q    Q    E  E  Q    Q    Q       Q    Q    E  E  Q    Q    Q     
---------------------------------|---------------------------------|
---------------------------------|---------------------------------|
---------------------------------|---------------------------------|
---------------------------------|---------------------------------|
---------------------------------|---------------------------------|
--2----2-------2--2----2---------|--2----2-------2--2----2---------|


  Q    Q    E  E  Q    Q    Q       Q    Q    E  E  Q    Q    Q     
---------------------------------|---------------------------------|
---------------------------------|---------------------------------|
---------------------------------|---------------------------------|
---------------------------------|---------------------------------|
---------------------------------|---------------------------------|
--0----0-------0--0----0---------|--0----0-------0--0----0---------|


  Q    E  Q    E  Q    H           Q.     E  E  E  Q    Q    Q     
--------------------------------|---------------------------------|
--------------------------------|---------------------------------|
--------------------------------|---------------------------------|
--------------------------------|---------------------------------|
--1----1-------1--1----1--------|--1------1-----1--1----3----1----|
--------------------------------|---------------------------------|


  Q    Q    E  E  Q    Q    Q       Q    Q    E  E  Q    Q    Q     
---------------------------------|---------------------------------|
---------------------------------|---------------------------------|
---------------------------------|---------------------------------|
---------------------------------|---------------------------------|
---------------------------------|---------------------------------|
--3----3-------3--3----3---------|--3----3-------3--3----3---------|


  Q    Q    E  E  Q    Q    Q       Q    Q    E  E  E  E  E  E  E  E   
---------------------------------|------------------------------------|
---------------------------------|------------------------------------|
---------------------------------|------------------------------------|
---------------------------------|------------------------------------|
---------------------------------|------------------------------------|
--2----2-------2--2----2---------|--2----2-------2--2--2--2--2-----2--|



(1.30) Verse 1

  Q.     Q    E  Q    Q    Q       Q.     Q    E  E  E  E  E  E  E   
--------------------------------|-----------------------------------|
--------------------------------|-----------------------------------|
--------------------------------|-----------------------------------|
--------------------------------|--------------------------0--2--0--|
--------------------------------|-----------------0--2--3-----------|
--0------0----0--0----0---------|--0------0----3--------------------|


  Q.     Q    E  Q    Q    E  E     E  E  E  E  E  E  E  E  E  E  E  E   
---------------------------------|--------------------------------------|
---------------------------------|--------------------------------------|
---------------------------------|--5--7--5--4--2-----------------------|
------------------------------5--|-----------------5--2--5--2--5--2--5--|
--3------3----2--3----3----------|--------------------------------------|
---------------------------------|--------------------------------------|


  E  E  E  E  E  E  Q    Q    E  S S    Q.     Q    E  Q    Q    E  E   
-------------------------------------|---------------------------------|
-------------------------------------|---------------------------------|
--2----------------------------------|---------------------------------|
-----5--2--0-------------------------|---------------------------------|
--------------3--2--0----0-----------|--0------0-------0----0-------0--|
---------------------------------3-4-|--------------3------------------|


  Q.     Q    E  Q    Q.     E     E  E  E  E  E  E  E  E  E  E  E  E   
--------------------------------|--------------------------------------|
--------------------------------|--------------------------------------|
--------------------------------|--3--5--3--2--0-----------------------|
-----------------------------3--|-----------------3--2--0--------------|
--1------1----1--1----1---------|--------------------------3--2--0-----|
--------------------------------|-----------------------------------3--|


(Vocals enter)

  Q.     Q    E  Q    Q    Q       Q.     Q    E  E  E  E  E  E  E   
--------------------------------|-----------------------------------|
--------------------------------|-----------------------------------|
--------------------------------|-----------------------------------|
--------------------------------|-----------------------------------|
--------------------------------|-----------------0--2-----0--2-----|
--0------0----0--0----0---------|--0------0----3--------3--------3--|


  Q.     Q    E  Q    Q    Q       Q.     Q    E  E  E  E  E  E  E   
--------------------------------|-----------------------------------|
--------------------------------|-----------------------------------|
--------------------------------|-----------------------------------|
--------------------------------|--------------------2--------------|
--3------3----2--3----3---------|--3------3----2--3-----3--2--------|
--------------------------------|-----------------------------3--0--|


  Q.     Q    E  Q    Q    Q       Q.     Q    E  Q    Q    Q     
--------------------------------|--------------------------------|
--------------------------------|--------------------------------|
--------------------------------|--------------------------------|
--------------------------------|--------------------------------|
--0------0-------0----0---------|--0------0-------0----0---------|
--------------3-----------------|--------------3-----------------|


  Q.     Q    E  Q    Q    E  E     Q.     Q    E  H.            
---------------------------------|------------------------------|
---------------------------------|------------------------------|
---------------------------------|------------------------------|
---------------------------------|------------------------------|
--1------1----0--1----1-------0--|--1------1----0---------------|
---------------------------------|-----------------1------------|


(2.13)

  E  E  E  E  E  E  Q    Q    Q       E  E  E  E  E  E  Q    H         
-----------------------------------|----------------------------------|
-----------------------------------|----------------------------------|
-----------------------------------|----------------------------------|
-----------------------------------|----------------------------------|
-----------------------------------|----------------------------------|
-----0--0--0-----0--0--------------|-----0--0--0-----0--0----0--------|


  E  E  E  E  E  E  Q    Q    Q       E  E  E  E  E  E  Q    H         
-----------------------------------|----------------------------------|
-----------------------------------|----------------------------------|
-----------------------------------|----------------------------------|
-----------------------------------|----------------------------------|
-----3--3--3-----3--3--------------|-----3--3--3-----3--3----3--------|
-----------------------------------|----------------------------------|


  E  E  E  E  E  E  Q    Q    Q       E  E  E  E  E  E  Q    H         
-----------------------------------|----------------------------------|
-----------------------------------|----------------------------------|
-----------------------------------|----------------------------------|
-----------------------------------|----------------------------------|
-----0--0--0-----0--0--------------|-----0--0--0-----0--0----0--------|
-----------------------------------|----------------------------------|


  E  E  E  E  E  E  Q    Q    Q       E  E  E  E  E  E  E  E  E  E  E  E   
-----------------------------------|--------------------------------------|
-----------------------------------|--------------------------------------|
-----------------------------------|--------------------------------------|
-----------------------------------|--------------------------------------|
-----1--1--1-----1--1--------------|-----1--1--1-----1-----------1--1--1--|
-----------------------------------|--------------------1--1--1-----------|


(2.34) Pre-Chorus 1

  E  E  E  E  E  E  E  E     E  E  E  E  E  Q.        E  E  E  E  E  E  E  E   
--------------------------|------------------------|--------------------------|
--------------------------|------------------------|--------------------------|
--------------------------|------------------------|--------------------------|
--------------------------|-----1-----1-----1------|--------------------------|
--0--0--1--0-----0--1--0--|------------------------|--0--0--1--0-----0--1--0--|
--------------------------|------------------------|--------------------------|


  E  E  E  E  E  Q.        E  E  E  E  E  E  E  E     E  E  E  E  E  Q.      
------------------------|--------------------------|------------------------|
------------------------|--------------------------|------------------------|
------------------------|--------------------------|------------------------|
-----1-----1-----1------|--------------------------|-----1-----1-----1------|
------------------------|--0--0--3--2-----0--2--1--|------------------------|
------------------------|--------------------------|------------------------|


  E  E  E  E  E  E  E  E     E  E  E  E  E  Q.        E  E  E  E  E  E  E  E   
--------------------------|------------------------|--------------------------|
--------------------------|------------------------|--------------------------|
--------------------------|------------------------|--------------------------|
--------------------------|-----1-----1-----1------|--------------------------|
--0--0--3--2-----0--2--1--|------------------------|--0--0--1--0--L--0--1--0--|
--------------------------|------------------------|--------------------------|


  E  E  E  E  E  Q.        E  E  E  E  E  E  E  E     E  E  E  E  E  Q.      
------------------------|--------------------------|------------------------|
------------------------|--------------------------|------------------------|
------------------------|--------------------------|------------------------|
-----1-----1-----1------|--------------------------|-----1-----1-----1------|
--L---------------------|--0--0--1--0--L--0--1--0--|--L---------------------|
------------------------|--------------------------|------------------------|


  E  E  E  E  E  E  E  E     E  E  E  E  E  Q.        E  E  E  E  E  E  E  E   
--------------------------|------------------------|--------------------------|
--------------------------|------------------------|--------------------------|
--------------------------|------------------------|--------------------------|
--------------------------|-----1-----1-----1------|--------------------------|
--0--0--3--2--L--0--2--1--|--L---------------------|--0--0--1--0--L--0--1--0--|
--------------------------|------------------------|--------------------------|


                           (3.01) Chorus 1
  E  E  E  E  E  E  E  E     H        E  E  E  E     H        E  E  E  E   
--------------------------|-----------------------|-----------------------|
--------------------------|-----------------------|-----------------------|
--------------------------|-----------------5--7--|--L--------L--2--0--2--|
-----------------0--2-----|--0--------L--7--------|-----------------------|
--L--4-----4--L--------4--|-----------------------|-----------------------|
--------------------------|-----------------------|-----------------------|


  H        E  E  E  E     E  Q    E  Q    Q       H        E  E  E  E   
-----------------------|-----------------------|-----------------------|
-----------------------|-----------------------|-----------------------|
--3--------L--2--------|-----------------------|-----------------5--7--|
-----------------3-----|-----------------------|--0--------L--7--------|
--------------------1--|--L--0----1--L----3----|-----------------------|
-----------------------|-----------------------|-----------------------|


  H.           E  E     H.           E  E     E  Q    E  E  E  E  E   
---------------------|---------------------|-------------------------|
---------------------|---------------------|-------------------------|
--L------------0--2--|--3------------------|-------------------------|
---------------------|---------------3-----|-------------------------|
---------------------|------------------1--|--L--0----1--L--1--3--3--|
---------------------|---------------------|-------------------------|


  E  E  E  E  E  E  E  E     E  E  E  E  E  E  E  E   
--------------------------|--------------------------|
--------------------------|--------------------------|
--------------------------|--------------------------|
--0--0--0--0--0--0--0--0--|--0--0--0--0--0--0--2--3--|
--------------------------|--------------------------|
--------------------------|--------------------------|


  E  E  E  E  E  E  E  E     E  E  E  E  E  E  E  E   
--------------------------|--------------------------|
--------------------------|--------------------------|
--------------------------|--------------------------|
--------------------------|--------------------------|
--1--1--1--1--1--1--1--1--|--1--1--1--1--1--0--1--3--|
--------------------------|--------------------------|


  E  E  E  E  E  E  E  E     E  E  E  E  E  E  E  E   
--------------------------|--------------------------|
--------------------------|--------------------------|
--------------------------|--------------------------|
--0--0--0--0--0--0--0--0--|--0--0--0--0--3--2--0-----|
--------------------------|-----------------------3--|
--------------------------|--------------------------|


                                  (3.28) Verse 2
  Q    Q    Q    Q    Q    Q       Q.     Q    E  Q    Q    Q     
--------------------------------|--------------------------------|
--------------------------------|--------------------------------|
--------------------------------|--------------------------------|
--------------------------------|--------------------------------|
--1----1----1-------------------|--------------------------------|
-----------------2----2----2----|--0------0----0--0----0---------|


  Q.     Q    E  E  E  E  E  E  E     Q.     Q    E  Q    Q    E  S S  
-----------------------------------|----------------------------------|
-----------------------------------|----------------------------------|
-----------------------------------|----------------------------------|
-----------------------------------|----------------------------------|
-----------------0--2-----0--2-----|--3------3----2--3----3-------1-2-|
--0------0----3--------3--------3--|----------------------------------|


  Q.     Q    E  E  E  E  E  E  E     Q.     Q    E  Q    Q    E  S S  
-----------------------------------|----------------------------------|
-----------------------------------|----------------------------------|
-----------------------------------|----------------------------------|
--------------5--4-----2-----------|----------------------------------|
--3------3----------5-----3--2-----|--0------0-------0----0-----------|
--------------------------------3--|--------------3---------------3-4-|


  Q.     Q    E  Q    Q    E  E     Q.     Q    E  Q    Q    E  E   
---------------------------------|---------------------------------|
---------------------------------|---------------------------------|
---------------------------------|---------------------------------|
---------------------------------|---------------------------------|
--0------0-------0----0-------0--|--1------1----0--1----1-------0--|
--------------3------------------|---------------------------------|


  Q.     Q    E  H.              E  E  E  E  E  E  Q    Q    Q     
------------------------------|-----------------------------------|
------------------------------|-----------------------------------|
------------------------------|-----------------------------------|
------------------------------|-----------------------------------|
--1------1----0---------------|-----------------------------------|
-----------------1------------|-----0--0--0-----0--0--------------|


  E  E  E  E  E  E  Q    H           E  E  E  E  E  E  Q    Q    Q     
----------------------------------|-----------------------------------|
----------------------------------|-----------------------------------|
----------------------------------|-----------------------------------|
----------------------------------|-----------------------------------|
----------------------------------|-----3--3--3-----3--3--------------|
-----0--0--0-----0--0----0--------|-----------------------------------|


  E  E  E  E  E  E  Q    H           E  E  E  E  E  E  Q    Q    Q     
----------------------------------|-----------------------------------|
----------------------------------|-----------------------------------|
----------------------------------|-----------------------------------|
----------------------------------|-----------------------------------|
-----3--3--3-----3--3----3--------|-----0--0--0-----0--0--------------|
----------------------------------|-----------------------------------|


  E  E  E  E  E  E  Q    H           E  E  E  E  E  E  Q    Q    Q     
----------------------------------|-----------------------------------|
----------------------------------|-----------------------------------|
----------------------------------|-----------------------------------|
----------------------------------|-----------------------------------|
-----0--0--0-----0--0----0--------|-----1--1--1-----1--1--------------|
----------------------------------|-----------------------------------|


                                       (4.10) Pre-Chorus 2
  E  E  E  E  E  E  E  E  E  E  E  E     E  E  E  E  E  E  E  E   
--------------------------------------|--------------------------|
--------------------------------------|--------------------------|
--------------------------------------|--------------------------|
--------------------------------------|--------------------------|
-----1--1--1-----1-----------1--1--1--|--0--0--1--0-----0--1--0--|
--------------------1--1--1-----------|--------------------------|


  E  E  E  E  E  Q.        E  E  E  E  E  E  E  E     E  E  E  E  E  Q.      
------------------------|--------------------------|------------------------|
------------------------|--------------------------|------------------------|
------------------------|--------------------------|------------------------|
-----1-----1-----1------|--------------------------|-----1-----1-----1------|
------------------------|--0--0--1--0-----0--1--0--|------------------------|
------------------------|--------------------------|------------------------|


  E  E  E  E  E  E  E  E     E  E  E  E  E  Q.        E  E  E  E  E  E  E  E   
--------------------------|------------------------|--------------------------|
--------------------------|------------------------|--------------------------|
--------------------------|------------------------|--------------------------|
--------------------------|-----1-----1-----1------|--------------------------|
--0--0--3--2-----0--2--1--|------------------------|--0--0--3--2-----0--2--1--|
--------------------------|------------------------|--------------------------|


  E  E  E  E  E  Q.        E  E  E  E  E  E  E  E     E  E  E  E  E  Q.      
------------------------|--------------------------|------------------------|
------------------------|--------------------------|------------------------|
------------------------|--------------------------|------------------------|
-----1-----1-----1------|--------------------------|-----1-----1-----1------|
------------------------|--0--0--1--0--L--0--1--0--|--L---------------------|
------------------------|--------------------------|------------------------|


  E  E  E  E  E  E  E  E     E  E  E  E  E  Q.        E  E  E  E  E  E  E  E   
--------------------------|------------------------|--------------------------|
--------------------------|------------------------|--------------------------|
--------------------------|------------------------|--------------------------|
--------------------------|-----1-----1-----1------|--------------------------|
--0--0--1--0--L--0--1--0--|--L---------------------|--0--0--3--2--L--0--2--1--|
--------------------------|------------------------|--------------------------|


                                                                |----3----|     
  E  E  E  E  E  Q.        E  E  E  E  E  E  E  E     E  Q.     Q    Q    Q     
------------------------|--------------------------|---------------------------|
------------------------|--------------------------|---------------------------|
------------------------|--------------------------|---------------------------|
-----1-----1-----1------|--------------------------|---------------------------|
--L---------------------|--0--0--1--0--L--0--1--0--|--L--4------4----4----4----|
------------------------|--------------------------|---------------------------|


(4.26) Chorus 2

  H        E  E  E  E     H        E  E  E  E     H        E  E  E  E   
-----------------------|-----------------------|-----------------------|
-----------------------|-----------------------|-----------------------|
-----------------5--7--|--L--------L--2--0--2--|--3--------L--2--------|
--0--------L--7--------|-----------------------|-----------------3-----|
-----------------------|-----------------------|--------------------1--|
-----------------------|-----------------------|-----------------------|


  E  Q    E  Q    Q       H        E  E  E  E     E  Q    Q    Q    E   
-----------------------|-----------------------|-----------------------|
-----------------------|-----------------------|-----5----4------------|
-----------------------|-----------------5--7--|--L------------7----5--|
-----------------------|--0--------L--7--------|-----------------------|
--L--0----1--L----3----|-----------------------|-----------------------|
-----------------------|-----------------------|-----------------------|


  H.           E  E     E  Q    E  E  E  E  E     E  E  E  E  E  E  E  E   
---------------------|-------------------------|--------------------------|
---------------------|-------------------------|--------------------------|
--3------------------|-------------------------|--------------------------|
---------------3-----|-------------3--3--2--2--|--0--0--0--0--0--0--0--0--|
------------------1--|--L--0----1--------------|--------------------------|
---------------------|-------------------------|--------------------------|


  E  E  E  E  E  E  E  E     E  E  E  E  E  E  E  E   
--------------------------|--------------------------|
--------------------------|--------------------------|
--------------------------|--------------------------|
--0--0--0--0--0--0--2--3--|--------------------------|
--------------------------|--1--1--1--1--1--1--1--1--|
--------------------------|--------------------------|


  E  E  E  E  E  E  E  E     E  E  E  E  E  E  E  E   
--------------------------|--------------------------|
--------------------------|--------------------------|
--------------------------|--------------------------|
--------------------------|--0--0--0--0--0--0--0--0--|
--1--1--1--1--1--0--1--3--|--------------------------|
--------------------------|--------------------------|


  E  E  E  E  E  E  E  E     E  E  E  E  E  E  E  E   
--------------------------|--------------------------|
--------------------------|--------------------------|
--------------------------|--------------------------|
--0--0--0--0--3--2--0-----|--------------------------|
-----------------------3--|--1--1--1--1--1--1--1-----|
--------------------------|-----------------------2--|

                           (5.04) 'Heed the call...'

  E  E  E  E  E  E  E  E     E  E  E  E  E  E  E  E   
--------------------------|--------------------------|
--------------------------|--------------------------|
--------------------------|--------------------------|
--------------------------|--5--5--5--5--5--5--5--5--|
--------------------------|--------------------------|
--L--2--2--2--2--2--2--2--|--------------------------|


  E  E  E  E  E  E  E  E     E  E  E  E  E  E  E  E   
--------------------------|--------------------------|
--------------------------|--------------------------|
--------------------------|--------------------------|
--5--5--5--5--5--5--3--5--|--1--1--1--1--1--1--1--0--|
--------------------------|--------------------------|
--------------------------|--------------------------|


  E  E  E  E  E  E  E  E     E  E  E  E  E  E  E  E   
--------------------------|--------------------------|
--------------------------|--------------------------|
--------------------------|--------------------------|
--1--1--1--1--1--0--1--3--|--5--5--5--5--5--5--5--5--|
--------------------------|--------------------------|
--------------------------|--------------------------|


  E  E  E  E  E  E  E  E     E  E  E  E  E  E  E  E     E  Q    Q    Q.      
--------------------------|--------------------------|----------------------|
--------------------------|--------------------------|--3--2----0-----------|
--------------3--2--------|-----------------------3--|---------------3------|
--5--5--5--5--------5--3--|--1--1--1--1--1--1--1-----|----------------------|
--------------------------|--------------------------|----------------------|
--------------------------|--------------------------|----------------------|


(5.17) Bridge - Keys solo
  -----   -----                                                     
                  E  E  E  E  E  E  E  E     E  E  E  E  E  Q.      
-------|-------|--------------------------|------------------------|
-------|-------|--------------------------|------------------------|
-------|-------|--------------------------|------------------------|
-------|-------|--------------------------|-----1-----1-----1------|
-------|-------|--0--0--1--0-----0--1--0--|------------------------|
-------|-------|--------------------------|------------------------|


  E  E  E  E  E  E  E  E     E  E  E  E  E  Q.        E  E  E  E  E  E  E  E   
--------------------------|------------------------|--------------------------|
--------------------------|------------------------|--------------------------|
--------------------------|------------------------|--------------------------|
--------------------------|-----1-----1-----1------|--------------------------|
--0--0--1--0-----0--1--0--|------------------------|--0--0--3--2-----0--2--1--|
--------------------------|------------------------|--------------------------|


  E  E  E  E  E  Q.        E  E  E  E  E  E  E  E     E  E  E  E  E  Q.      
------------------------|--------------------------|------------------------|
------------------------|--------------------------|------------------------|
------------------------|--------------------------|------------------------|
-----1-----1-----1------|--------------------------|-----1-----1-----1------|
------------------------|--0--0--3--2-----0--2--1--|------------------------|
------------------------|--------------------------|------------------------|


  E  E  E  E  E  E  E  E     E  E  E  E  E  Q.        E  E  E  E  E  E  E  E   
--------------------------|------------------------|--------------------------|
--------------------------|------------------------|--------------------------|
--------------------------|------------------------|--------------------------|
--------------------------|-----1-----1-----1------|--------------------------|
--0--0--1--0--L--0--1--0--|--L---------------------|--0--0--1--0--L--0--1--0--|
--------------------------|------------------------|--------------------------|


  E  E  E  E  E  Q.        E  E  E  E  E  E  E  E     E  E  E  E  E  Q.      
------------------------|--------------------------|------------------------|
------------------------|--------------------------|------------------------|
------------------------|--------------------------|------------------------|
-----1-----1-----1------|--------------------------|-----1-----1-----1------|
--L---------------------|--0--0--3--2--L--0--2--1--|--L---------------------|
------------------------|--------------------------|------------------------|


                                                      (5.47) Guitar solo

  E  E  E  E  E  E  E  E     E  E  E  E  E  Q.        Q.     E   H         
--------------------------|------------------------|----------------------|
--------------------------|------------------------|----------------------|
--------------------------|------------------------|----------------------|
--------------------------|-----1-----1-----1------|----------------------|
--0--0--3--2--L--0--2--1--|--L---------------------|--2------2\-----------|
--------------------------|------------------------|----------------------|


              Q.     E   H                       Q.     E   H         
-----------|----------------------|-----------|----------------------|
-----------|----------------------|-----------|----------------------|
-----------|----------------------|-----------|----------------------|
-----------|----------------------|-----------|----------------------|
-----------|--2------2\-----------|-----------|--2------2\-----------|
-----------|----------------------|-----------|----------------------|


              Q.     E   H           H         E.  E.  E   
-----------|----------------------|-----------------------|
-----------|----------------------|-----------------------|
-----------|----------------------|-----------------------|
-----------|----------------------|-----------------------|
-----------|--2------2\-----------|-----------/5---4---0--|
-----------|----------------------|-----------------------|


  E.  S E  E  S S S S E  E     E.  S E  E  E  E  E  E   
----------------------------|--------------------------|
----------------------------|--------------------------|
----------------------------|--------------------------|
----------------------------|--------------------------|
--2---2-2--0--2-2---2-2--0--|--2---2-2--0--2--2--4--5--|
----------------------------|--------------------------|


  E.  S E  E  S S S S E  E     E.  S E  E  E  E  E  E   
----------------------------|--------------------------|
----------------------------|--------------------------|
----------------------------|--------------------------|
----------------------------|--------------------------|
----------------------------|-----------------------0--|
--3---3-3--2--3-3---3-3--2--|--3---3-3--2--3--3--3-----|


  E.  S E  E  S S S S E  E     E.  S E  E  E  E  E  E   
----------------------------|--------------------------|
----------------------------|--------------------------|
----------------------------|--------------------------|
----------------------------|-----------------------4--|
--2---2-2--0--2-2---2-2--0--|--2---2-2--0--2--4--5-----|
----------------------------|--------------------------|


  E.  S E  E  S S S S E  E     E  E  E  E  E  E  E  E   
----------------------------|--------------------------|
----------------------------|--------------------------|
----------------------------|--0--2--0-----------------|
--5---5-5--4--5-5---5-5--4--|-----------4--2--0--------|
----------------------------|--------------------4--0--|
----------------------------|--------------------------|


  E  E  E  E  E  E  E  E     E  Q    Q    Q    E     E  E  E  E  E  E  E  E   
--------------------------|-----------------------|--------------------------|
--------------------------|-----------------------|--------------------------|
--------------------------|-----------------------|-----4--------2-----------|
--------------------------|----------7----5----4--|--5-----5--4-----4--4--2--|
--2--2--2--0--0--0--0-----|-----5-----------------|--------------------------|
-----------------------3--|--L--------------------|--------------------------|


  E  E  E  E  E  E  E  E     E  E  E  E  E  E  E  E     E  Q    Q    Q    E   
--------------------------|--------------------------|-----------------------|
--------------------------|--------------------------|-----------------------|
--------------------------|--------------------------|-----------------------|
--L--2--2--0--2--2--2--0--|--------------------------|----------7----5----4--|
--------------------------|--2--2--2--0--0--0--0-----|-----5-----------------|
--------------------------|-----------------------3--|--L--------------------|


                                                      (6.27)
  E  E  E  E  E  E  E  E     E  E  E  E  E  E  E  E     Q    Q    Q    E  E   
--------------------------|--------------------------|-----------------------|
--------------------------|--------------------------|-----------------------|
-----4--------2-----------|--------------------------|-----------------------|
--5-----5--4-----4--4--2--|--L--4--2--4--0--2-----0--|-----------------------|
--------------------------|--------------------4-----|--2---------0----------|
--------------------------|--------------------------|--------------------3--|



  E  E  E  E  Q.     E     Q    Q    Q    E  E     Q    E  E  E  E  E  E   
------------------------|-----------------------|-------------------------|
------------------------|-----------------------|-------------------------|
------------------------|-----------------------|-------------------------|
------------------------|-----------------------|-------------------------|
---------------------5--|--7---------5-------3--|--L----3--3--3--3--3--3--|
-----2-----0--L---------|-----------------------|-------------------------|


  E  E  E  E  E  E     E  E  E  E  E  E  E  E     E  E  E  E  E   
--------------------|--------------------------|-----------------|
--------------------|--------------------------|-----------------|
--------------------|--------------------------|-----------------|
--------------------|--------------------------|-----0-----0-----|
--3--3--3--3--3--5--|--2--2--2--2--2--2--2--2--|--2-----2-----2--|
--------------------|--------------------------|-----------------|


  E  E  E  E  E  E  E  E     E  E  E  E  E  E     E  E  E  E  E  E  E  E   
--------------------------|--------------------|--------------------------|
--------------------------|--------------------|--------------------------|
--------------------------|--------------------|--------------------------|
--------------------------|--------------------|--------------------------|
--3--3--3--3--3--3--3--3--|--3--3--3--3--3--5--|--2--2--2--2--2--2--2--2--|
--------------------------|--------------------|--------------------------|


  E  E  E  E  E  E  E  E     E  E  E  E  E  E  E  E   
--------------------------|--------------------------|
--------------------------|--------------------------|
--------------------------|--------------------------|
--------------------------|--------------------------|
--2--2--2--2--2--2--2--2--|--4--4--4--4--4--4--4--4--|
--------------------------|--------------------------|


  E  E  E  E  E  E  E  E     Q    E  Q    E  Q       E  Q    E  E  E  Q     
--------------------------|-----------------------|------------------------|
--------------------------|-----------------------|------------------------|
--------------------------|-----------------------|------------------------|
--------------------------|-----------------------|------------------------|
--4--4--4--4--4--4--4--4--|-----------------------|------------------------|
--------------------------|--3----3--3----3--3----|--3--3----3--3--3--3----|


  Q    E  Q    E  Q       E  Q    E  E  E  Q       E  E  E  E  E  E  E  E   
-----------------------|------------------------|--------------------------|
-----------------------|------------------------|--------------------------|
-----------------------|------------------------|--------------------------|
-----------------------|------------------------|--1--1--1--1--1--1--1--1--|
-----------------------|------------------------|--------------------------|
--1----1--1----1--1----|--1--1----1--1--1--1----|--------------------------|


  E  E  E  E  E  E  E  E     E  E  E  E  E  E  E  E   
--------------------------|--------------------------|
--------------------------|--------------------------|
--------------------------|--------------------------|
--1--1--1--1--1--3--5--1--|--0--0--0--0--0--0--0--0--|
--------------------------|--------------------------|
--------------------------|--------------------------|


  E  E  E  E  E  E  E  E     E  E  E  E  E  E  E  E   
--------------------------|--------------------------|
--------------------------|--------------------------|
--------------2--1--------|--------------------------|
--0--0--0--0--------2--0--|--0--0--0--0--0--0--0--0--|
--------------------------|--------------------------|
--------------------------|--------------------------|

                                       (7.06) Verse 3

  E  E  E  E  E  E  E  E     H           Q.     Q    E  Q    Q    Q     
--------------------------|-----------|--------------------------------|
--------------------------|-----------|--------------------------------|
--------------2--1--------|-----------|--------------------------------|
--0--0--0--0--------2--4--|-----------|--------------------------------|
--------------------------|-----------|--------------------------------|
--------------------------|-----------|--0------0----0--0----0---------|


  Q.     Q    E  E  E  E  E  E  E     Q.     Q    E  Q    Q    E  E   
-----------------------------------|---------------------------------|
-----------------------------------|---------------------------------|
-----------------------------------|---------------------------------|
--------------------------0--2--0--|------------------------------5--|
-----------------0--2--3-----------|--3------3----2--3----3----------|
--0------0----3--------------------|---------------------------------|


  E  E  E  E  E  E  E  E  E  E  E  E     E  E  E  E  E  E  Q    Q    E  S S  
--------------------------------------|-------------------------------------|
--------4--7--6-----4-----------------|-------------------------------------|
--5--7-----------7-----5--4--0-----0--|--2--0-------------------------------|
--------------------------------2-----|--------2--0-------------------------|
--------------------------------------|--------------3--2--0----0-----------|
--------------------------------------|---------------------------------3-4-|


  Q.     Q    E  Q    Q    E  E     Q.     Q.     Q.     E  E  E   
---------------------------------|--------------------------------|
---------------------------------|--------------------------5--4--|
---------------------------------|----------------5------7--------|
---------------------------------|---------3----------------------|
--0------0-------0----0-------0--|--1-----------------------------|
--------------3------------------|--------------------------------|


  E  E  E  E  E  E  E  E  E  E  E  E     Q.     Q    E  Q    Q    Q     
--------------------------------------|--------------------------------|
-----2--------------------------------|--------------------------------|
--5-----3--2--0-----------------------|--------------------------------|
-----------------3--2--0--------------|--------------------------------|
--------------------------3--2--0-----|--------------------------------|
-----------------------------------3--|--0------0----0--0----0---------|


  Q.     Q    E  E  E  E  E  E  E     Q.     Q    E  Q    Q    E  E   
-----------------------------------|---------------------------------|
-----------------------------------|---------------------------------|
-----------------------------------|---------------------------------|
-----------------------------------|---------------------------------|
-----------------0--2-----0--2-----|--3------3----2--3----3-------2--|
--0------0----3--------3--------3--|---------------------------------|


  Q.     Q    E  E  E  E  E  E  E     Q.     Q    E  Q    Q    E  S S  
-----------------------------------|----------------------------------|
-----------------------------------|----------------------------------|
-----------------------------------|----------------------------------|
--------------------2--------------|----------------------------------|
--3------3----2--3-----3--2-----2--|--0------0-------0----0-----------|
-----------------------------3-----|--------------3---------------3-4-|


  Q.     Q    E  Q    Q    E  E     Q.     Q    E  Q    Q    E  E   
---------------------------------|---------------------------------|
---------------------------------|---------------------------------|
---------------------------------|---------------------------------|
---------------------------------|---------------------------------|
--0------0-------0----0-------0--|--1------1----0--1----1-------0--|
--------------3------------------|---------------------------------|


  Q.     Q    E  H.              E  E  E  E  E  E  Q    Q    Q     
------------------------------|-----------------------------------|
------------------------------|-----------------------------------|
------------------------------|-----------------------------------|
------------------------------|-----------------------------------|
--1------1----0---------------|-----------------------------------|
-----------------1------------|-----0--0--0-----0--0--------------|


  E  E  E  E  E  E  Q    H           E  E  E  E  E  E  Q    Q    Q     
----------------------------------|-----------------------------------|
----------------------------------|-----------------------------------|
----------------------------------|-----------------------------------|
----------------------------------|-----------------------------------|
----------------------------------|-----3--3--3-----3--3--------------|
-----0--0--0-----0--0----0--------|-----------------------------------|


  E  E  E  E  E  E  Q    H           E  E  E  E  E  E  Q    Q    Q     
----------------------------------|-----------------------------------|
----------------------------------|-----------------------------------|
----------------------------------|-----------------------------------|
----------------------------------|-----------------------------------|
-----3--3--3-----3--3----3--------|-----0--0--0-----0--0--------------|
----------------------------------|-----------------------------------|


  E  E  E  E  E  E  Q    H           E  E  E  E  E  E  Q    Q    Q     
----------------------------------|-----------------------------------|
----------------------------------|-----------------------------------|
----------------------------------|-----------------------------------|
----------------------------------|-----------------------------------|
-----0--0--0-----0--0----0--------|-----1--1--1-----1--1--------------|
----------------------------------|-----------------------------------|

                                          (8.08) Pre-Chorus 3

  E  E  E  E  E  E  E  E  E  E  E  E     E  E  E  E  E  E  E  E   
--------------------------------------|--------------------------|
--------------------------------------|--------------------------|
--------------------------------------|--------------------------|
--------------------------------------|--------------------------|
-----1--1--1-----1-----------1--1--1--|--0--0--1--0-----0--1--0--|
--------------------1--1--1-----------|--------------------------|


  E  E  E  E  E  Q.        E  E  E  E  E  E  E  E     E  E  E  E  E  Q.      
------------------------|--------------------------|------------------------|
------------------------|--------------------------|------------------------|
------------------------|--------------------------|------------------------|
-----1-----1-----1------|--------------------------|-----1-----1-----1------|
------------------------|--0--0--1--0-----0--1--0--|------------------------|
------------------------|--------------------------|------------------------|


  E  E  E  E  E  E  E  E     E  E  E  E  E  Q.        E  E  E  E  E  E  E  E   
--------------------------|------------------------|--------------------------|
--------------------------|------------------------|--------------------------|
--------------------------|------------------------|--------------------------|
--------------------------|-----1-----1-----1------|--------------------------|
--0--0--3--2-----0--2--1--|------------------------|--0--0--1--0-----0--1--0--|
--------------------------|------------------------|--------------------------|
               

                                 (8.27) Chorus 3
  |----3----|    |----3----|                             
  Q    Q    Q    Q    Q    Q       H        E  E  E  E   
--------------------------------|-----------------------|
--------------------------------|-----------------------|
--------------------------------|-----------------5--7--|
--------------------------------|--0--------L--7--------|
-------4----4----4----4----4----|-----------------------|
--------------------------------|-----------------------|


  H        E  E  E  E     H        E  E  E  E     E  Q    E  Q    Q     
-----------------------|-----------------------|-----------------------|
-----------------------|-----------------------|-----------------------|
--L--------L--2--0--2--|--3--------L--2--------|-----------------------|
-----------------------|-----------------3-----|-----------------------|
-----------------------|--------------------1--|--L--0----1--L----3----|
-----------------------|-----------------------|-----------------------|


  H        E  E  E  E     E  Q    E  E  E  E  E     H.           E  E   
-----------------------|-------------------------|---------------------|
-----------------------|-----5----4--------------|---------------------|
-----------------5--7--|--L----------7--5-----5--|--3------------L--1--|
--0--------L--7--------|-------------------7-----|---------------------|
-----------------------|-------------------------|---------------------|
-----------------------|-------------------------|---------------------|


  H.           Q        E  E  E  E  E  E  E  E     E  E  E  E  E  E  E  E   
---------------------|--------------------------|--------------------------|
---------------------|--------------------------|--------------------------|
--L------------1\----|--------------------------|--------------------------|
---------------------|--0--0--0--0--0--0--0--0--|--0--0--0--0--0--0--0-----|
---------------------|--------------------------|-----------------------3--|
---------------------|--------------------------|--------------------------|


  E  E  E  E  E  E  E  E     E  E  E  E  E  E  E  E   
--------------------------|--------------------------|
--------------------------|--------------------------|
--------------------------|--------------------------|
--------------------------|--------------------------|
--1--1--1--1--1--0--1--3--|--1--1--1--1--1--1--3--3--|
--------------------------|--------------------------|


  E  E  E  E  E  E  E  E     E  E  E  E  E  E  E  E   
--------------------------|--------------------------|
--------------------------|--------------------------|
--------------------------|--------------------------|
--0--0--0--0--0--0--0--0--|--0--0--0--0--0--0--0-----|
--------------------------|-----------------------3--|
--------------------------|--------------------------|


  E  E  E  E  E  E  E  E     E  E  E  E  E  E  E  E   
--------------------------|--------------------------|
--------------------------|--------------------------|
--------------------------|--------------------------|
--------------------------|--------------------------|
--1--1--1--1--1--1--1-----|--------------------------|
-----------------------2--|--L--2--2--2--2--2--2--2--|


(8.49) Outro

  E  E  E  E  E  E  E  E     E  E  E  E  E  E  E  E   
--------------------------|--------------------------|
--------------------------|--------------------------|
--0--0--0--0--0--0--0--0--|--0--0--0--0--0--0--3--3--|
--------------------------|--------------------------|
--------------------------|--------------------------|
--------------------------|--------------------------|


  E  E  E  E  E  E  E   E     E  E  E  E  E  E  E   E   
---------------------------|---------------------------|
---------------------------|---------------------------|
--8--8--8--8--8--7--8--10--|--8--7--8--7--8--8--8--10--|
---------------------------|---------------------------|
---------------------------|---------------------------|
---------------------------|---------------------------|


   E   E   E   E   E   E   E   E      E   E   E   E   E   E   E   E   
----------------------------------|----------------------------------|
----------------------------------|----------------------------------|
--12--12--12--12--12--12--12--12--|--12--12--12--12--15--14--12------|
----------------------------------|------------------------------15--|
----------------------------------|----------------------------------|
----------------------------------|----------------------------------|


   E   E   E   E   E   E   E   E      E   E   E   E   E  E  E  E   
----------------------------------|-------------------------------|
----------------------------------|-------------------------------|
----------------------------------|-------------------------------|
--13--13--13--13--13--13--13--13--|--13--12--12--10--10--8--8--8--|
----------------------------------|-------------------------------|
----------------------------------|-------------------------------|


(9.03) 'Heed the call...'

  E  E  E  E  E  E  E  E     E  E  E  E  E  E  E  E   
--------------------------|--------------------------|
--------------------------|--------------------------|
--------------------------|--------------------------|
--------------------------|-----------------------0--|
--------------------------|--------------------1-----|
--3--3--3--3--3--3--3--3--|--3--3--3--3--3--3--------|


  E  E  E  E  E  E  E  E     E  E  E  E  E  E  E  E   
--------------------------|--------------------------|
--------------------------|--------------------------|
--------------------------|--------------------------|
--1--1--1--1--1--1--1--1--|--1--0--1--3--1--0--------|
--------------------------|--------------------3--1--|
--------------------------|--------------------------|


  E  E  E  E  E  E  E  E     E  E  E  E  E  E  E  E   
--------------------------|--------------------------|
--------------------------|--------------------------|
--------------------------|--------------------------|
--------------------------|-----------------------0--|
--------------------------|-----------------0--1-----|
--3--3--3--3--3--3--3--3--|--3--3--3--3--3-----------|


  E  E  E  E  E  E  E  E     E  E  E  E  E  E  E  E   
--------------------------|--------------------------|
--------------------------|--------------------------|
--------------------------|-----------------------3--|
--1--1--1--1--1--1--1--1--|--1--0--1--3--1--3--5-----|
--------------------------|--------------------------|
--------------------------|--------------------------|


  S S S S S S S S S S S S S S S S    S S S S S S S S S S S S S S S S  
----------------------------------|----------------------------------|
----------------------------------|----------------------------------|
--5-5-5-5-5-5-5-5-5-5-5-5-5-5-5-5-|--5-5-5-5-5-5-5-5-5-5-5-5-5-5-5-5-|
----------------------------------|----------------------------------|
----------------------------------|----------------------------------|
----------------------------------|----------------------------------|


  S S S S S S S S S S S S S S S S    S S S S S S S S S S S S S S S S  
----------------------------------|----------------------------------|
----------------------------------|----------------------------------|
--1-1-1-1-1-1-1-1-1-1-1-1-1-1-1-1-|--1-1-1-1-1-1-1-1-1-1-1-1---------|
----------------------------------|--------------------------1-1-1-1-|
----------------------------------|----------------------------------|
----------------------------------|----------------------------------|


  S S S S S S S S S S S S S S S S    S S S S S S S S S S S S S S S S  
----------------------------------|----------------------------------|
----------------------------------|----------------------------------|
----------------------------------|----------------------------------|
----------------------------------|----------------------------------|
--3-3-3-3-3-3-3-3-3-3-3-3-3-3-3-3-|--3-3-3-3-3-3-3-3-3-3-3-3-3-3-3-3-|
----------------------------------|----------------------------------|


  E  E  E  E  E  E  E  E  E  E  E  E     E  E  E  E  E  E  Q    H         
--------------------------------------|----------------------------------|
--------------------------------------|----------------------------------|
--3--3--3--1--1--1--------------------|----------------------------------|
--------------------1--1--1-----------|----------------------------------|
-----------------------------3--3--3--|----------------------------------|
--------------------------------------|-----0--0--0-----0--0-------------|


-------||
-------||
-------||
-------||
-------||
-------||




Duration Legend
---------------
W - whole
H - half
Q - quarter
E - 8th
S - 16th
T - 32nd
X - 64th
. - note dotted
|-n-|  - n-tuplets


Tablature Legend
----------------
L - tied note
x - dead note
g - grace note
(n) - ghost note
> - accentuded note
NH - natural harmonic
AH - artificial harmonic
TH - tapped harmonic
SH - semi harmonic
PH - pitch harmonic
h - hammer on
p - pull off
b - bend
br - bendRelease
pb - preBend
pbr - preBendRelease
brb - bendReleaseBend
\n/ - tremolo bar dip
\n - tremolo bar dive
-/n - tremolo bar Release up
/n\ - tremolo bar inverted dip
/n - tremolo bar return
-\n - tremolo bar Release down
S - shift slide
s - legato slide
/ -  slide into from below or out of upwards
\ -  slide into from above or out of downwards
~ - vibrato
W - wide vibrato
tr - trill
TP - tremolo picking
T - tapping
S - slap
P - pop
< - fade in
^ - brush up
v - brush down

            
            
Suggest correction
Creating personal tab
Creating personal tab
You can edit any tab online and save it as your Personal.

You can edit, replace or remove any tab part or add personal notes – all changes will be seen only by you.

Personal tabs can be accessed anytime from any device, even offline.
Learn more »
Give kudos to tab author, rate the tab!
1 2 3 4 5
comments
print report bad tab
guest
You may want to rate the tab now too:
select rating
Wanna post a correction for this tab? Suggest correction