Oops, an error
Loading. Please wait.

The Seven Sacred Promises bass

version 1
version 1

Whole song

Interactive

22 views 1 this week
no commentswrite comment
1 2 3 4 5
2 more votes to show rating
add to favorites
×
Save as Personal and add changes to this tab that will be seen only by you. Learn more ›
×
You can save this tab as Personal to edit and correct it or add notes. All changes will be seen only by you. Learn more »
launch autoscroll
font size
0
reset
guitar tuner
edit
Autoscroll
slow
fast
+/-
esc
set tempo
stop
Author
Difficulty
                          The Seven Sacred Promises                             
                               Pagan's Mind



(Intro)     (0.01)
             |----3----|    |----3----|                                 
             Q    Q    Q    Q    Q    Q       E.  E.  E  E  S S S S E   
C||-------|--------------------------------|---------------------------|
G||-------|--------------------------------|---------------------------|
D||-------|--------------------------------|---------------------------|
A||-------|--5--------------5--------------|---------------------------|
E||-------|--------------------------------|---------------------------|
B||-------|-------3----3---------3----3----|--3---3---3-----1-1-3-3----|


  E.  E.  E  E  S S S E.     E.  E.  E  E  S S E  E   
--------------------------|--------------------------|
--------------------------|--------------------------|
--------------------------|--------------------------|
--------------------------|--------------------------|
--------------------------|--------------------------|
--3---3---3-----3-3-3-1---|--3---3---3-----1-1-3--3--|


  E.  S E  E  E.  S E  E     E.  E.  E  E  S S S S E     E.  E.  E  Q    Q     
--------------------------|---------------------------|-----------------------|
--------------------------|---------------------------|-----------------------|
--------------------------|---------------------------|-----------------------|
--------------------------|---------------------------|-----------------------|
--------------------------|---------------------------|-------------1----0----|
--3---3-3--3--3---3-3--3--|--3---3---3-----1-1-3-3----|--3---3---3------------|


  E.  E.  E  E  S S Q       E.  S E  E  E.  S E  E   
-------------------------|--------------------------|
-------------------------|--------------------------|
-------------------------|--------------------------|
-------------------------|--------------------------|
--------------------6----|--L---6-6--6--8---8-8--8--|
--3---3---3--L--3-3------|--------------------------|


  E.  E.  E  E  S S S S E     E.  E.  E  Q    Q       E.  E.  E  Q    Q     
---------------------------|-----------------------|-----------------------|
---------------------------|-----------------------|-----------------------|
---------------------------|-----------------------|-----------------------|
---------------------------|-----------------------|-----------------------|
---------------------------|-----------------------|-----------------------|
--3---3---3-----1-1-3-3----|--3---3---3--3----1----|--3---3---3--3----3----|


  S S S S S S S S S S S S S S S S    E.  E.  E  E  S S S E.   
------------------2---------------|--------------------------|
------------2-3-5---5-3-2-0-------|--------------------------|
------2-3-5-----------------3-2-0-|--------------------------|
--3-5-----------------------------|--------------------------|
----------------------------------|--------------------4-4---|
----------------------------------|--3---3---3--L--3-3-------|


  Q.     E  E  E  Q       E  E  E  E  E  E  Q       W                 
-----------------------|-------------------------|-------------------|
-----------------------|-------------------------|-------------------|
-----------------------|-------------------------|-------------------|
-----------------------|-----------------0--1----|--L----------------|
--L------4--4--4--4----|-----------1--L----------|-------------------|
-----------------------|--3--3--3----------------|-------------------|


 (0.31) Verse 1

  S  S S S S S S  S S S S S S S S S    S  S S S S S S  S S S S S S S S S  
------------------------------------|------------------------------------|
------------------------------------|------------------------------------|
------------------------------------|----------------------------2-------|
--2S-4---4-----2S-4---4-----2-4-----|--2S-4---4-----2S-4-----2-4---4-----|
------------------------------------|------------------------------------|
------------------------------------|------------------------------------|


  S  S S S S S S  S S S S S S S S S    S  S S S S S S  S S S S S S S S S  
------------------------------------|------------------------------------|
------------------------------------|------------------------------------|
------------------------------------|----------------------------2-------|
--2S-4---4-----2S-4---4-----2-4-----|--2S-4---4-----2S-4-----2-4---4-----|
------------------------------------|------------------------------------|
------------------------------------|------------------------------------|


  S  S S S S S S  S S S S S S S S S    S  S S S S S S  S S S S S S S S S  
------------------------------------|------------------------------------|
------------------------------------|------------------------------------|
------------------------------------|----------------------------2-------|
--2S-4---4-----2S-4---4-----2-4-----|--2S-4---4-----2S-4-----2-4---4-----|
------------------------------------|------------------------------------|
------------------------------------|------------------------------------|


  S  S S S S S S  S S S S S S S S S    S  S S S S S E  H         
------------------------------------|---------------------------|
------------------------------------|---------------------------|
------------------------------------|---------------------------|
--2S-4---4-----2S-4---4-----2-4-----|--2S-4---4-----2--L--------|
------------------------------------|---------------------------|
------------------------------------|---------------------------|

(0.45)

  S S S S E  S S S S E  S S S S    E  S S S S E  S S S S S S S S  
--------------------------------|--------------------------------|
--------------------------------|--------------------------------|
--------------------------------|--------------------------------|
--2-2-2-4----2-2-4-4----2-2-2-4-|-----2-2-4-4----2-2-2---4-4-4---|
--------------------------------|--------------------------------|
--------------------------------|--------------------------------|


  S S S S E  S S S S E  S S S S    E  S S S S E  S S S S S S S S  
--------------------------------|--------------------------------|
--------------------------------|--------------------------------|
--------------------------------|--------------------------------|
--------0--------0-0----------0-|---------0-0------------0-0-0---|
--4-4-4------4-4--------4-4-4---|-----4-4--------4-4-4-----------|
--------------------------------|--------------------------------|


  S S S S E  S S S S E  S S S S    E  S S S S E  S S S S S S S S  
--------------------------------|--------------------------------|
--------------------------------|--------------------------------|
--------------------------------|--------------------------------|
--------------------------------|--------------------------------|
--0-0-0-2----0-0-2-2----0-0-0-2-|-----0-0-2-2----0-0-0---2-2-2---|
--------------------------------|--------------------------------|


                                                              (0.59) Pre-Chorus 1

  S S S S E  S S S S E  S S S S    E  E  E  E  E  E  E  E     W                 
--------------------------------|--------------------------|-------------------|
--------------------------------|--------------------------|-------------------|
--------------------------------|--------------------------|-------------------|
--------------------------------|-----------2--0-----------|-------------------|
--2-2-2-4----2-2-4-4----2-2-2-4-|--L--4--4--------4--2--0--|--2----------------|
--------------------------------|--------------------------|-------------------|


  W                   W                   W                 
-------------------|-------------------|-------------------|
-------------------|-------------------|-------------------|
-------------------|-------------------|-------------------|
-------------------|-------------------|-------------------|
--L----------------|-------------------|-------------------|
-------------------|--0----------------|--L----------------|


  H        E  E  E  E     E  Q    Q    Q.        E  E  E  E  E  E  E  E   
-----------------------|----------------------|--------------------------|
-----------------------|----------------------|--------------------------|
-----------------9--7--|--L--6----4-----------|--------------------------|
--0--------L--7--------|---------------7------|--------------------------|
-----------------------|----------------------|--3--3--3--3--3--3--3--3--|
-----------------------|----------------------|--------------------------|
 

                            (1.13) Chorus 1

  E  E  E  E  E  E  E  E     E.  E.  E  E  Q    E     E.  E.  E  E  S S S S E   
--------------------------|------------------------|---------------------------|
--------------------------|------------------------|---------------------------|
--------------------------|------------------------|---------------------------|
--0--0--0--0--0--5--4--0--|------------------------|--0---0---0--L--0-0-3-3-0--|
--------------------------|----------------0----3--|---------------------------|
--------------------------|--3---3---3--L----------|---------------------------|


  E.  E.  E  E  S S S S S S    S S S S S S S S S S S S S S S S  
----------------------------|----------------------------------|
----------------------------|----------------------------------|
------------------------0---|----------------------------------|
--1---1---1--L--1-1-0-1---1-|--3-3-3-3-3-3-3-3-3-3-3-3-3-3-3-3-|
----------------------------|----------------------------------|
----------------------------|----------------------------------|


  E.  E.  E  E  Q    E     E.  E.  E  E  S S S S E     E.  E.  E  E  E  E  E   
------------------------|---------------------------|-------------------------|
------------------------|---------------------------|-------------------------|
------------------------|---------------------------|----------3--2-----------|
------------------------|--0---0---0--L--0-0-3-3-0--|--1---1---------3--1--0--|
----------------0----2--|---------------------------|-------------------------|
--3---3---3--L----------|---------------------------|-------------------------|


  E  S E  S E  S S S S E  E     E.  E.  E  E  Q    E   
-----------------------------|------------------------|
-----------------------------|------------------------|
-----------------------------|------------------------|
-----------------------------|------------------------|
--3--3-3--3-3--3-3-3-3-1--0--|----------------0----2--|
-----------------------------|--3---3---3--L----------|


  E.  E.  E  E  S S S S E     E.  E.  E  E  S S S S E   
---------------------------|---------------------------|
---------------------------|---------------------------|
---------------------------|--------------------0-0----|
--0---0---0-----0-0-3-3-0--|--1---1---1--L--1-1-----1--|
---------------------------|---------------------------|
---------------------------|---------------------------|


  S S S S S S S S S S S S S S S S    E.  E.  E  E  E  E  E   
----------------------------------|-------------------------|
----------------------------------|-------------------------|
----------------------------------|-------------------------|
--3-3-3-3-3-3-3-3-3-3-3-3-3-3-3-3-|-------------------------|
----------------------------------|-------------------------|
----------------------------------|--3---3---3--L--3--3--3--|


  E.  E.  E  E  E  E  E     E  E  E  E  E  E  Q       W                 
-------------------------|-------------------------|-------------------|
-------------------------|-------------------------|-------------------|
-------------------------|-----------3--2----------|-------------------|
-------------------0-----|--1--1--1--------3-------|-------------------|
--1---1---1--L--3-----1--|--------------------3----|--L----------------|
-------------------------|-------------------------|-------------------|


(1.41) Verse 2

  S  S S S S S S  S S S S S S S S S    S  S S S S S S  S S S S S S S S S  
------------------------------------|------------------------------------|
------------------------------------|------------------------------------|
------------------------------------|----------------------------2-------|
--2S-4---4-----2S-4---4-----2-4-----|--2S-4---4-----2S-4-----2-4---4-----|
------------------------------------|------------------------------------|
------------------------------------|------------------------------------|


  S  S S S S S S  S S S S S S S S S    S  S S S S S S  S S S S S S S S S  
------------------------------------|------------------------------------|
------------------------------------|------------------------------------|
------------------------------------|----------------------------2-------|
--2S-4---4-----2S-4---4-----2-4-----|--2S-4---4-----2S-4-----2-4---4-----|
------------------------------------|------------------------------------|
------------------------------------|------------------------------------|


  S  S S S S S S  S S S S S S S S S    S  S S S S S S  S S S S S S S S S  
------------------------------------|------------------------------------|
------------------------------------|------------------------------------|
------------------------------------|----------------------------2-------|
--2S-4---4-----2S-4---4-----2-4-----|--2S-4---4-----2S-4-----2-4---4-----|
------------------------------------|------------------------------------|
------------------------------------|------------------------------------|


  S  S S S S S S  S S S S S S S S S    S  S S S S S E  H         
------------------------------------|---------------------------|
------------------------------------|---------------------------|
------------------------------------|---------------------------|
--2S-4---4-----2S-4---4-----2-4-----|--2S-4---4-----2--L--------|
------------------------------------|---------------------------|
------------------------------------|---------------------------|

(1.55)

  S S S S E  S S S S E  S S S S    E  S S S S E  S S S S S S S S  
--------------------------------|--------------------------------|
--------------------------------|--------------------------------|
--------------------------------|--------------------------------|
--2-2-2-4----2-2-4-4----2-2-2-4-|-----2-2-4-4----2-2-2---4-4-4---|
--------------------------------|--------------------------------|
--------------------------------|--------------------------------|


  S S S S E  S S S S E  S S S S    E  S S S S E  S S S S S S S S  
--------------------------------|--------------------------------|
--------------------------------|--------------------------------|
--------------------------------|--------------------------------|
--------0--------0-0----------0-|---------0-0------------0-0-0---|
--4-4-4------4-4--------4-4-4---|-----4-4--------4-4-4-----------|
--------------------------------|--------------------------------|


  S S S S E  S S S S E  S S S S    E  S S S S E  S S S S S S S S  
--------------------------------|--------------------------------|
--------------------------------|--------------------------------|
--------------------------------|--------------------------------|
--------------------------------|--------------------------------|
--0-0-0-2----0-0-2-2----0-0-0-2-|-----0-0-2-2----0-0-0---2-2-2---|
--------------------------------|--------------------------------|


                                                            (2.10) Pre-Chorus 2
  S S S S E  S S S S E  S S S S    E  E  E  E  E  E  E  E     W                 
--------------------------------|--------------------------|-------------------|
--------------------------------|--------------------------|-------------------|
--------------------------------|--------------------------|-------------------|
--------------------------------|-----------2--0-----------|-------------------|
--2-2-2-4----2-2-4-4----2-2-2-4-|--L--4--4--------4--2--0--|--2----------------|
--------------------------------|--------------------------|-------------------|


  E  Q    Q    Q    E     H        E  E  E  E     W                 
-----------------------|-----------------------|-------------------|
-----------------------|-----------------------|-------------------|
----------6----4-------|-----------------------|-------------------|
-----4--------------4--|--2--------L-----2-----|-------------------|
--L--------------------|--------------2--------|-------------------|
-----------------------|--------------------0--|--L----------------|


  H        E  E  E  E     E  Q    Q    Q.        E  E  E  E  E  E  E  E   
-----------------------|----------------------|--------------------------|
-----------------------|----------------------|--------------------------|
-----------------9--7--|--L--6----4-----------|--------------------------|
--0--------L--7--------|---------------7------|--------------------------|
-----------------------|----------------------|--3--3--3--3--3--3--3--3--|
-----------------------|----------------------|--------------------------|


                            (2.23) Chorus 2

  E  E  E  E  E  E  E  E     E.  E.  E  E  Q    E     E.  E.  E  E  S S S S E   
--------------------------|------------------------|---------------------------|
--------------------------|------------------------|---------------------------|
--------------------------|------------------------|---------------------------|
--0--0--0--0--0--5--4--0--|------------------------|--0---0---0--L--0-0-3-3-5--|
--------------------------|----------------0----3--|---------------------------|
--------------------------|--3---3---3--L----------|---------------------------|


  E.  E.  E  E  S S S S E     S S S S S S S S S S S S S S S S  
---------------------------|----------------------------------|
---------------------------|----------------------------------|
---------------------------|----------------------------------|
--1---1---1--L--1-1-3-3-5--|--3-3-3-3-3-3-3-3-3-3-3-3-3-3-3-3-|
---------------------------|----------------------------------|
---------------------------|----------------------------------|


  E.  E.  E  E  Q    E     E.  E.  E  E  S S S S E     E.  E.  E  E  E  E  E   
------------------------|---------------------------|-------------------------|
------------------------|---------------------------|-------------------------|
------------------------|---------------------------|----------3--2-----------|
------------------------|--0---0---0--L--0-0-3-3-0--|--1---1---------3--1--0--|
----------------0----2--|---------------------------|-------------------------|
--3---3---3--L----------|---------------------------|-------------------------|


  E  S E  S E  S S S S E  E     E.  E.  E  E  Q    E   
-----------------------------|------------------------|
-----------------------------|------------------------|
-----------------------------|------------------------|
-----------------------------|------------------------|
--3--3-3--3-3--1-1-1-1-0--0--|----------------0----2--|
-----------------------------|--3---3---3--L----------|


  E.  E.  E  E  S S S S E     E.  E.  E  E  S S S S E   
---------------------------|---------------------------|
---------------------------|---------------------------|
---------------------------|--------------------0-0----|
--0---0---0-----0-0-3-3-5--|--1---1---1--L--1-1-----1--|
---------------------------|---------------------------|
---------------------------|---------------------------|


  S S S S S S S S S S S S S S S S    E.  E.  E  E  E  E  E   
----------------------------------|-------------------------|
----------------------------------|-------------------------|
----------------------------------|-------------------------|
--3-3-3-3-3-3-3-3-3-3-3-3-3-3-3-3-|-------------------------|
----------------------------------|-------------------------|
----------------------------------|--3---3---3--L--3--3--3--|


                                                       (2.49) Bridge

  E.  E.  E  E  E  E  E     E  E  E  E  E  E  E  E     S S S S S S S S S S S S  
-------------------------|--------------------------|--------------------------|
-------------------------|--------------------------|--------------------------|
-------------------------|-----------3--2-----------|--------------------------|
-------------------0-----|--1--1--1--------3--1--0--|--------------------------|
--1---1---1--L--3-----1--|--------------------------|--3-3---2-2---1-1---0-0---|
-------------------------|--------------------------|--------------------------|


  S S S S S S S S S S S S    E  E  E  E   
--------------------------|--------------|
--------------------------|--------------|
--------------------------|--------------|
--------------------------|--------------|
--3-3---2-2---1-1---0-0---|--------------|
--------------------------|--4-----4-----|


    S S S S S S S S S S S S S S S S 12x   S S S S S S E  H         4x
|------------------------------------||----------------------------||
|------------------------------------||----------------------------||
|*----------------------------------*||*--------------------------*||
|*----------------------------------*||*--------------------------*||
|------------------------------------||---0-0-1-1-2-2--------------||
|---3-3---3-3---3-3-3-3---3-3---3-3--||----------------------------||


   S S S S S S S S S S S S S S S S  4x   S S S S S S E  H         4x
------------------------------------||----------------------------||
------------------------------------||----------------------------||
*----------------------------------*||*--------------------------*||
*----------------------------------*||*--------------------------*||
------------------------------------||---0-0-1-1-2-2--------------||
---3-3---3-3---3-3-3-3---3-3---3-3--||----------------------------||


   S S S S S S S S S S S S S S S S  4x   S S S S S S E  H         4x
------------------------------------||----------------------------||
------------------------------------||----------------------------||
*----------------------------------*||*--------------------------*||
*----------------------------------*||*--------------------------*||
------------------------------------||---0-0-1-1-2-2--------------||
---3-3---3-3---3-3-3-3---3-3---3-3--||----------------------------||
   

                                         (3.54)

   S S S S S S S S S S S S S S S S  4x  S S S S S S S S S S S S S S S S  
------------------------------------||----------------------------------|
------------------------------------||----------------------------------|
*----------------------------------*||----------------------------------|
*----------------------------------*||----------------------------------|
------------------------------------||--0-0---0-0---0-0-0-0---0-0---0-0-|
---3-3---3-3---3-3-3-3---3-3---3-3--||----------------------------------|


  S S S S S S S S S S S S S S S S    S S S S S S S S S S S S S S S S  
----------------------------------|----------------------------------|
----------------------------------|----------------------------------|
----------------------------------|----------------------------------|
----------------------------------|----------------------------------|
--0-0---0-0---0-0-0-0---0-0---0-0-|--2-2---2-2---2-2-2-2---2-2---2-2-|
----------------------------------|----------------------------------|


  S S S S S S S S S S S S S S S S    S S S S S S S S S S S S S S S S  
----------------------------------|----------------------------------|
----------------------------------|----------------------------------|
----------------------------------|----------------------------------|
----------------------------------|----------------------------------|
--2-2---2-2---2-2-2-2---2-2---2-2-|----------------------------------|
----------------------------------|--3-3---3-3---3-3-3-3---3-3---3-3-|


  S S S S S S S S S S S S S S S S    S S S S S S S S S S S S S S S S  
----------------------------------|----------------------------------|
----------------------------------|----------------------------------|
----------------------------------|----------------------------------|
----------------------------------|----------------------------------|
----------------------------------|----------------------------------|
--3-3---3-3---3-3-3-3---3-3---3-3-|--0-0---0-0---0-0-0-0---0-0---0-0-|


  S S S S S S S S S S S S S S S S    S S S S S S S S S S S S S S S S  
----------------------------------|----------------------------------|
----------------------------------|----------------------------------|
----------------------------------|----------------------------------|
----------------------------------|----------------------------------|
----------------------------------|--0-0---0-0---0-0-0-0---0-0---0-0-|
--0-0---0-0---0-0-0-0---0-0---0-0-|----------------------------------|


                                      (4.11)

  S S S S S S S S S S S S S S S S    S S S S S S S S S S S S S S S S  
----------------------------------|----------------------------------|
----------------------------------|----------------------------------|
----------------------------------|----------------------------------|
----------------------------------|----------------------------------|
--0-0---0-0---0-0-0-0---0-0---0-0-|--2-2---2-2---2-2-2-2---2-2---2-2-|
----------------------------------|----------------------------------|


  S S S S S S S S S S S S S S S S    S S S S S S S S S S S S S S S S  
----------------------------------|----------------------------------|
----------------------------------|----------------------------------|
----------------------------------|----------------------------------|
----------------------------------|----------------------------------|
--5-5---5-4---4-4-2-2---2-0---0-0-|----------------------------------|
----------------------------------|--3-3---3-3---3-3-3-3---3-3---3-3-|


  S S S S S S S S S S S S S S S S    S S S S S S S S S S S S S S S S  
----------------------------------|----------------------------------|
----------------------------------|----------------------------------|
----------------------------------|----------------------------------|
----------------------------------|----------------------------------|
----------------------------------|--2-2---2-2---2-2-2-2---2-2---2-2-|
--3-3---3-3---3-3-3-3---3-3---3-3-|----------------------------------|

                                   (4.21) 

  S S S S S S S S S S S S E  E     E.  E.  E  E.  E.  E   
--------------------------------|------------------------|
--------------------------------|------------------------|
--------------------------------|------------------------|
--------------------------------|--7---5---6--7---5---6--|
--2-2---2-2---2-2-2-2---2-2-----|------------------------|
--------------------------------|------------------------|


  E.  E.  E  E  E  S E.     E.  E.  E  E.  E.  E   
-------------------------|------------------------|
-------------------------|------------------------|
---------------------5---|------------------------|
--7---5---6--7-----------|--7---5---6--7---5---6--|
-------------------------|------------------------|
-------------------------|------------------------|


  |----3----|    |----3----|       |----3----|    |----3----|     
  Q    Q    Q    Q    Q    Q       Q    Q    Q    Q    Q    Q     
--------------------------------|--------------------------------|
--------------------------------|--------------------------------|
--------------------------------|--------------------------------|
--7-----------------------------|--------------------------------|
--------------------------------|--------------------------------|
-------0----0----0----0----0----|--5----3----4----5----3----4----|


  |----3----|    |----3----|       |----3----|    |----3----|     
  Q    Q    Q    Q    Q    Q       Q    Q    Q    Q    Q    Q     
--------------------------------|--------------------------------|
--------------------------------|--------------------------------|
--------------------------------|--------------------------------|
--------------------------------|--------------------------------|
----------------------3----3----|--------------------------------|
--5----3----4----5--------------|--5----3----4----5----3----4----|


  H.            Q       E.  E.  E  E.  E.  E     E.  E.  E  Q    E  E   
---------------------|------------------------|------------------------|
---------------------|------------------------|------------------------|
---------------------|------------------------|------------------------|
---------------------|------------------------|------------------------|
---------------------|------------------------|------------------3--3--|
--5\-----------------|--5---3---4--5---3---4--|--5---3---4--5----------|


  E.  E.  E  E.  E.  E     H.            Q     
------------------------|---------------------|
------------------------|---------------------|
------------------------|---------------------|
------------------------|---------------------|
------------------------|---------------------|
--5---3---4--5---3---4--|--5\-----------------|


  S S S S S S S S S S S S S S S S    S S S S S S S S S S S S S S S S  
----------------------------------|----------------------------------|
----------------------------------|----------------------------------|
----------------------------------|----------------------------------|
----------------------------------|----------------------------------|
----------------------------------|--------------------------3-3-3-3-|
--5-5-5-3-3-3-4-4-5-5-5-3-3-3-4-4-|--5-5-5-3-3-3-4-4-5-5-5-5---------|


  S S S S S S S S S S S S S S S S    E  E  E  E  E  E  E  E   
----------------------------------|--------------------------|
----------------------------------|--------------------------|
----------------------------------|--------------------------|
----------------------------------|--7--7--7--5--5--5--3--3--|
----------------------------------|--------------------------|
--5-5-5-3-3-3-4-4-5-5-5-3-3-3-4-4-|--------------------------|


  E  E  E  E  Q    Q       H.           E  E     W                 
------------------------|---------------------|-------------------|
------------------------|---------------------|-------------------|
------------------------|------------------3--|--L----------------|
--3--2--2--2--0---------|---------------------|-------------------|
-------------------3----|--1------------L-----|-------------------|
------------------------|---------------------|-------------------|


(4.55) Verse 3

  E.  E.  E  Q.     S S    E.  E.  E  Q.     S S    E.  E.  E  Q.     E   
------------------------|------------------------|-----------------------|
------------------------|------------------------|-----------------------|
------------------------|------------------------|-----------------------|
--4---4---2--L------x-x-|--4---4---2--4----------|--4---4---2--L------x--|
------------------------|--------------------2-4-|-----------------------|
------------------------|------------------------|-----------------------|


  E.  E.  S S H           E.  E.  E  Q.     E     E.  E.  S S H         
-----------------------|-----------------------|-----------------------|
-----------------------|-----------------------|--------------2--------|
--------------2--------|-----------------------|-----------------------|
--4---4---2-4----------|--4---4---2--L------x--|--4---4---2-4----------|
-----------------------|-----------------------|-----------------------|
-----------------------|-----------------------|-----------------------|


  E.  E.  E  H           S S S S E  S S S S E  S S E   
----------------------|-------------------------------|
----------------------|-------------------------------|
----------------------|--4-2--------------------------|
--4---4---2--L--------|------4-2----4-2------------2--|
----------------------|-----------------4-2----2-4----|
----------------------|-------------------------------|


(5.11)

  S S S S E  S S S S E  S S S S    E  S S S S E  S S S S S S S S  
--------------------------------|--------------------------------|
--------------------------------|--------------------------------|
--------------------------------|--------------------------------|
--2-2-2-4----2-2-4-4----2-2-2-4-|-----2-2-4-4----2-2-2---4-4-4---|
--------------------------------|--------------------------------|
--------------------------------|--------------------------------|


  S S S S E  S S S S E  S S S S    E  S S S S E  S S S S S S S S  
--------------------------------|--------------------------------|
--------------------------------|--------------------------------|
--------------------------------|--------------------------------|
--2-2-2-4----2-2-4-4----2-2-2-4-|-----2-2-4-4----2-2-2---4-4-4---|
--------------------------------|--------------------------------|
--------------------------------|--------------------------------|


  S S S S E  S S S S E  S S S S    E  S S S S E  S S S S S S S S  
--------------------------------|--------------------------------|
--------------------------------|--------------------------------|
--------------------------------|--------------------------------|
--------0--------0-0----------0-|-----------0------------0-0-0---|
--4-4-4------4-4--------4-4-4---|-----4-4-4------4-4-4-----------|
--------------------------------|--------------------------------|


  |--3--|  |--3--|  |--3--|  |--3--|     |--3--|     |-3-|                  
  E  E  E  E  E  E  E  E  E  E  E  E     E  E  E  E  S S S S S S S S S S S  
--------------------------------------|------------------------------------|
--------------------------------------|------------------------------------|
--------------------------------------|------------------------------------|
--------------------------------------|--------------------2---2-3-4-2-----|
--0--0--0--2--------0--0--0--2--------|--2--2--2--4--2-3-4---4---------4-0-|
--------------------------------------|------------------------------------|


(5.25) Pre-Chorus 3

  H        E  E  E  E     E  Q    Q    E  E  E     H        E  E  E  E   
-----------------------|------------------------|-----------------------|
-----------------------|------------------------|-----------------------|
-----------------6--4--|--L--3----1-------3-----|-----------------------|
--------------4--------|---------------4-----4--|--2--------L-----2-----|
--2--------L-----------|------------------------|--------------2--------|
-----------------------|------------------------|--------------------0--|


  W                   H        E  E  E  E     E  Q    Q    Q.      
-------------------|-----------------------|----------------------|
-------------------|-----------------------|----------------------|
-------------------|-----------------9--7--|--L--6----4-----------|
-------------------|--0--------L--7--------|---------------7------|
-------------------|-----------------------|----------------------|
--L----------------|-----------------------|----------------------|

                                                      (5.40) Chorus 3          

  E  E  E  E  E  E  E  E     E  E  E  E  E  E  Q       E.  E.  E  E  Q    E   
--------------------------|-------------------------|------------------------|
--------------------------|-------------------------|------------------------|
--------------------------|-------------------------|------------------------|
--------------------------|--0--0-------------------|------------------------|
--3--3--3--3--3--3--3--3--|-------------------------|----------------0----3--|
--------------------------|-----------3-----2-------|--3---3---3--L----------|


  E.  E.  E  E  S S S S E     E.  E.  E  E  S S S S E   
---------------------------|---------------------------|
---------------------------|---------------------------|
---------------------------|---------------------------|
--0---0---0--L--0-0-3-3-5--|--1---1---1--L--1-1-3-3-5--|
---------------------------|---------------------------|
---------------------------|---------------------------|


  S S S S S S S S S S S S S S S S    E.  E.  E  E  Q    E   
----------------------------------|------------------------|
----------------------------------|------------------------|
----------------------------------|------------------------|
--3-3-3-3-3-3-3-3-3-3-3-3-3-3-3-3-|------------------------|
----------------------------------|----------------0----2--|
----------------------------------|--3---3---3--L----------|


  E.  E.  E  E  S S S S E     E.  E.  E  E  E  E  E   
---------------------------|-------------------------|
---------------------------|-------------------------|
---------------------------|----------3--2-----------|
--0---0---0--L--0-0-3-3-0--|--1---1---------3--1--0--|
---------------------------|-------------------------|
---------------------------|-------------------------|


  E  S E  S E  S S S S E  E     E.  E.  E  E  Q    E   
-----------------------------|------------------------|
-----------------------------|------------------------|
-----------------------------|------------------------|
-----------------------------|------------------------|
--3--3-3--3-3--1-1-1-1-0--0--|----------------0----2--|
-----------------------------|--3---3---3--L----------|


  E.  E.  E  E  S S S S E     E.  E.  E  E  S S S S E   
---------------------------|---------------------------|
---------------------------|---------------------------|
---------------------------|--------------------0-0----|
--0---0---0-----0-0-3-3-0--|--1---1---1--L--1-1-----1--|
---------------------------|---------------------------|
---------------------------|---------------------------|


  S S S S S S S S S S S S S S S S    E.  E.  E  E  E  E  E   
----------------------------------|-------------------------|
----------------------------------|-------------------------|
----------------------------------|-------------------------|
--3-3-3-3-3-3-3-3-3-3-3-3-3-3-3-3-|-------------------------|
----------------------------------|----------------0--1--3--|
----------------------------------|--3---3---3--L-----------|


  E.  E.  E  E  E  Q       E  E  E  E  E  E  E  E     E  E  E  E  E  E  E  E   
------------------------|--------------------------|--------------------------|
------------------------|--------------------------|--------------------------|
------------------------|-----------3--2-----------|--------------------------|
--0---0---0--L--0--3----|--1--1--1--------3--1--0--|--------0--0--1--1--3--3--|
------------------------|--------------------------|--3--3--------------------|
------------------------|--------------------------|--------------------------|

(6.08) Outro

  S S S S S S S S S S S S S S S S    S S S S S S S S S S S S S S S S  
----------------------------------|----------------------------------|
----------------------------------|----------------------------------|
----------------------------------|----------------------------------|
--5-5-5-5-5-5-5-5-5-5-5-5-5-5-5-5-|--0-0-0-0-0-0-0-0-0-0-0-0-0-0-0-0-|
----------------------------------|----------------------------------|
----------------------------------|----------------------------------|


  S S S S S S S S S S S S S S S S    S S S S S S S S S S S S S S S S  
----------------------------------|----------------------------------|
----------------------------------|----------------------------------|
----------------------------------|----------------------------------|
--1-1-1-1-1-1-1-1-1-1-1-1-1-1-1-1-|--3-3-3-3-3-3-3-3-3-3-3-3-3-3-3-3-|
----------------------------------|----------------------------------|
----------------------------------|----------------------------------|


  S S S S S S S S S S S S S S S S    S S S S S S S S S S S S S S S S  
----------------------------------|----------------------------------|
----------------------------------|----------------------------------|
----------------------------------|----------------------------------|
----------------------------------|----------------------------------|
----------------------------------|--0-0-0-0-0-0-0-0-0-0-0-0-0-0-0-0-|
--3-3-3-3-3-3-3-3-3-3-3-3-3-3-3-3-|----------------------------------|


  S S S S S S S S S S S S S S S S    S S S S S S S S S S S S S S S S  
----------------------------------|------------------2---------------|
----------------------------------|------------2-3-5---5-3-2---------|
----------------------------------|------2-3-5---------------5-3-2---|
----------------------------------|--3-5---------------------------5-|
--1-1-1-1-1-1-1-1-1-1-1-1-1-1-1-1-|----------------------------------|
----------------------------------|----------------------------------|


  S S S S S S S S S S S S S S S S    Q    Q    H          
------------------2---------------|---------------------||
------------2-3-5---5-3-2---------|---------------------||
------2-3-5---------------5-3-2-1-|--0------------------||
--3-5-----------------------------|---------------------||
----------------------------------|---------------------||
----------------------------------|---------------------||




Duration Legend
---------------
W - whole
H - half
Q - quarter
E - 8th
S - 16th
T - 32nd
X - 64th
. - note dotted
|-n-|  - n-tuplets


Tablature Legend
----------------
L - tied note
x - dead note
g - grace note
(n) - ghost note
> - accentuded note
NH - natural harmonic
AH - artificial harmonic
TH - tapped harmonic
SH - semi harmonic
PH - pitch harmonic
h - hammer on
p - pull off
b - bend
br - bendRelease
pb - preBend
pbr - preBendRelease
brb - bendReleaseBend
\n/ - tremolo bar dip
\n - tremolo bar dive
-/n - tremolo bar Release up
/n\ - tremolo bar inverted dip
/n - tremolo bar return
-\n - tremolo bar Release down
S - shift slide
s - legato slide
/ -  slide into from below or out of upwards
\ -  slide into from above or out of downwards
~ - vibrato
W - wide vibrato
tr - trill
TP - tremolo picking
T - tapping
S - slap
P - pop
< - fade in
^ - brush up
v - brush down

            
            
Suggest correction
Creating personal tab
Creating personal tab
You can edit any tab online and save it as your Personal.

You can edit, replace or remove any tab part or add personal notes – all changes will be seen only by you.

Personal tabs can be accessed anytime from any device, even offline.
Learn more »
Give kudos to tab author, rate the tab!
1 2 3 4 5
comments
print report bad tab
guest
You may want to rate the tab now too:
select rating
Wanna post a correction for this tab? Suggest correction