Oops, an error
Loading. Please wait.

Ladder Man Tab

382 views 1 this week
1 commentread comment
1 2 3 4 5
please rate
add to favorites
launch autoscroll
font size
0
reset
how to read this tab
guitar tuner
Autoscroll
slow
fast
+/-
esc
set tempo
stop
Help us to improve Ultimate-Guitar.com Take our survey!
×
Page France
Ladder Man

rhythm is a little tricky, listen to song

E---5-----------7----------|
B---7-----------7----------|
G---7-----------9----------|
D---6-----------9----------|
A---5-----------8----------|
E---5--(x13)—7—(x13--------|
Suggest correction
Give kudos to tab author, rate the tab!
1 2 3 4 5
comments
print report bad tab
1 comment total.
0 reply
lneely 31 wrote on March 13 2008, 02:19 am

E---5-----------7----------|
B---7-----------8----------|
G---6-----------9----------|
D---7-----------9----------|
A---5-----------7----------|
E---x----------—x—---------|

guest
You may want to rate the tab now too:
select rating
Wanna post a correction for this tab? Suggest correction