Oops, an error
Loading. Please wait.

Spine Chords

401 views 1 this week
no commentswrite comment
1 2 3 4 5
please rate
add to favorites
launch autoscroll
font size
0
reset
transpose
0
reset
display chords
guitar tuner
Autoscroll
slow
fast
+/-
esc
set tempo
stop
Help us to improve Ultimate-Guitar.com Take our survey!
×
Author
I've been on here for a while, but this is my first tab/chords so it might not be 
100% perfect. I think there's a way to comment or message so please do that if you 
have suggestions



A            E                  D
You were my beliefs all rusting over
    A         E                   D
And I was the support within your spine.
   A                E              D
We noticed that the stars were all exploding
      A               E                 D
So we stared into the sky until we were blind
 
     A                   E                    D
Then cut off both of our arms and reached for nothing
    A                       E              D
And rewound the frames that twisted in our minds
       A                E                  D
And we watched separate lives in backwards motion
      A        E                D
So we ended up connected at the sides
 
A E D x4

Guitar 2
e|-----------------------------|
B|-----------------------------|  
G|-----------2-2-1-------------| x2
D|-------2-2-------2-4-2-0-----|
A|-0-4-5--4----------------4---|
E|-----------------------------|

  A               E              D
I wondered if the sky was just a ceiling
        A               E                 D
And you wondered if the ground was just a floor
           A                 E         D
Oh how the world will make a fool of a believer
A          E          D         
I was a believer once before

Guitar 2
e|-----------------------------|
B|-----------------------------|  
G|-----------------------------| x12
D|-----------------------------|
A|---4-2-0---------------------| 
E|-0-------4-2-----------------|


Guitar 3
You will conme home       You will come home
e|-------|                |-------|
B|-------|                |-------|
G|-------|                |---2-2-|
D|-----2-| x4             |-2-----| x4
A|-0-4---|                |-------|
E|-------|                |-------|
                                                    x2

You will come home         You will come home
|-------|                  |-----------------|
|-------|                  |-0-----0-----2--0|  
|---2-2-|                  |---2-----2-----2-|
|-4-----| x4               |-----4-----4-----| x4
|-------|                  |-----------------|
|-------|                  |-----------------|

(Guitars 1 & 2 continue playing the "we will come home" part) 
A
But the airways in our stomachs (You will come home)
       E
Never seemed to find it funny (You will come home)
        D
As we'd float above the ocean (You will come home)
        A
While I loved you from a corner (You will come home)
            E                      
Through the bricks and through the borders (You will come home)
        D
Without motions (You will come home)
 
         A
So we'll place all our remains (You will come home)
         E
Within a freezer (You will come home)
                      D    
And believe that they won't spoil (You will come home)
         A
And I'll trade being your spine (You will come home)
     E
With another one who thinks (You will come home)
            D
That he can keep your bones aligned (You will come home)
 
And I'll watch until he finds that (You will come home)
    A 
I'm your home (You will come home)
 

Repeat of the "you will come hoem part" a bunch of times for the end:

Guitar 2
e|-----------------------------|
B|-----------------------------|  
G|-----------------------------| 
D|-----------------------------|
A|---4-2-0---------------------| 
E|-0-------4-2-----------------|


Guitar 3
You will conme home       You will come home
e|-------|                |-------|
B|-------|                |-------|
G|-------|                |---2-2-|
D|-----2-| x4             |-2-----| x4
A|-0-4---|                |-------|
E|-------|                |-------|
                                                    

You will come home         You will come home
|-------|                  |-----------------|
|-------|                  |-0-----0-----2--0|  
|---2-2-|                  |---2-----2-----2-|
|-4-----| x4               |-----4-----4-----| x4
|-------|                  |-----------------|
|-------|                  |-----------------|


On the last part of the last "You will come home" play this:
Ending (guitar 3)
E|---------------------------|
B|0-----0--------------------|  
G|--2-----2---2-------1-2----|
D|----4-----4---4---4--------|
A|----------------4-------0--|
E|---------------------------|
Suggest correction
Give kudos to tab author, rate the tab!
1 2 3 4 5
comments
print report bad tab
guest
You may want to rate the tab now too:
select rating
Wanna post a correction for this tab? Suggest correction