Oops, an error
Loading. Please wait.

Consigna Del Perdedor tab

by Paiko
23 views 1 this week
no commentswrite comment
1 2 3 4 5
3 more votes to show rating
add to favorites
×
Save as Personal and add changes to this tab that will be seen only by you. Learn more ›
×
You can save this tab as Personal to edit and correct it or add notes. All changes will be seen only by you. Learn more »
launch autoscroll
font size
0
reset
how to read this tab
guitar tuner
edit
Autoscroll
slow
fast
+/-
esc
set tempo
stop
Me llamo Juan Guerra y saco música siempre. Me encanta la música.
Escríbanme si precisan algo y yo veo si lo se o si puedo sacarlo.
Si alguien cree que hay algo mal en la canción, corríjanme.
Mi e-mail es: phantomgue@

Introducción
Acordes: G - C
D-------------------------------------------------1----
b-------------------------------------------2---2-2--2-
g-3-----------------3-3-------3---------3-1---1---1--3-
e---3-3-2-3-5-3-2-3-----0-1-0---0-5/0-0-----------2--2-

Verso: Repite todo el verso la secuencia G - Cadd9
Pre-Coro: G-A-A#-C
Coro: Gm - Cm - D7
Solo:
D--------------------------------------------------
b-------------------------------------------2---2--
g-3-----------------3-3-------3---------3-1---1----
e---3-3-2-3-5-3-2-3-----0-1-0---0-5/0-0------------

D------------------------------------------------------
b--2---------------------------------------------------
g----0-1-3---------------------------------------------
e----------0-1-3-5-3-5-3-5-3-5-8-9-10-8-5-5-5-3-1-0----

D------------------------------------------------------
b-3----3----2---2-----2--3-----3-----2---2----2--------
g--3-0--3-0---0-----3/1----3-0---3-0---0----3/1--------
e------------------------------------------------------

Final: C-A#-G
Suggest correction
Creating personal tab
Creating personal tab
You can edit any tab online and save it as your Personal.

You can edit, replace or remove any tab part or add personal notes – all changes will be seen only by you.

Personal tabs can be accessed anytime from any device, even offline.
Learn more »
Give kudos to tab author, rate the tab!
1 2 3 4 5
comments
print report bad tab
guest
Wanna post a correction for this tab? Suggest correction