Oops, an error
Loading. Please wait.

Antidote Tab

by Pain
1,205 views 1 this week
no commentswrite comment
1 2 3 4 5
2 more votes to show rating
add to favorites
launch autoscroll
font size
0
reset
how to read this tab
guitar tuner
Autoscroll
slow
fast
+/-
esc
set tempo
stop
Help us to improve Ultimate-Guitar.com Take our survey!
×
Author
Intro:
e:---------------------------------------------------------------|
b:---------------------------------------------------------------|
g:---------------------------------------------------------------|
D:-------xx5-7-3-5------xx5-7-3-5------xx5-7-3-5------xx5-3------|
A:---xx3-xx3-5-1-3--xx3-xx3-5-1-3--xx3-xx3-5-1-3--xx3-xx3-1-5-3--|
E:-8/xx1------------xx1------------xx1------------xx1-------3-1--|

Chorus: Strum intro chords

Verse:
BASS
G:-------------|
D:--10-8-8-10--|   Play a billion times
A:-8-----------|
E:-------------|

Guitar:
Ska Style
e:-xx8--8--8--8--8----|
b:-xx10-10-10-10-10---|
g:-xx10-10-10-10-10---|
D:--------------------|
A:--------------------|
E:--------------------|

Then play power chords ska style
It's weird, It's Pain
e:-----------------------------------|
b:-----------------------------------|
g:-10-10-10-10-10-10-10--------------|
D:-10-10-10-10-10-10-10-10-10-10-10--|
A:-8--8--8--8--8--8--8--10-10-10-10--|
E:----------------------8--8--8--8---|

"And now..."
e:-8--------3--1--------|
b:-10-------5--3--------|
g:-10-------5--3---555--|
d:-10-------5--3---555--|
a:-8--------3--1---333--|
E:----------------------|

CHORUS
VERSE 2
e:-111-8--8--8--111-8--8--8--111-8--8--8--111-8--8--8---|
b:-111-10-10-10-111-10-10-10-111-10-10-10-111-10-10-10--|
g:-222-10-10-10-222-10-10-10-222-10-10-10-222-10-10-10--|
D:-333----------333----------333----------333-----------|
A:------------------------------------------------------|
E:------------------------------------------------------|

THEN PLAY POWER CHORD SKA PART
CHORUS

Bridge:
e:--------------------------------------|
b:--------------------------------------|
g:-10-10-10-10-5-5-5-5-7-7-3-3-5-5-5-5--|
D:-10-10-10-10-5-5-5-5-7-7-3-3-5-5-5-5--|
A:-8--8--8--8--3-3-3-3-5-5-1-1-3-3-3-3--|
E:--------------------------------------|

Mexican Bridge (Distortion off)
e:-8--8--8----8--8--8---|
b:-10-10-10---10-10-10--|
g:-10-10-10---10-10-10--|
d:----------------------|
a:----------------------|
E:----------------------|

e:-8--8--8--8--8--------------------|
b:-8--8--8--8--8--------------------|
g:-9--9--9--9--9--------------------|
d:-10-10-10-10-10-10-10-10-10-10-10-|
a:----------------10-10-10-10-10-10-|
E:----------------8--8--8--8--8--8--|

CHORUS END
Suggest correction
Give kudos to tab author, rate the tab!
1 2 3 4 5
comments
print report bad tab
guest
You may want to rate the tab now too:
select rating
Wanna post a correction for this tab? Suggest correction