Oops, an error
Loading. Please wait.

Follow Me Tab

version 1
version 1

Whole song

Interactive

by Pain
494 views 1 this week
no commentswrite comment
1 2 3 4 5
please rate
add to favorites
launch autoscroll
font size
0
reset
how to read this tab
guitar tuner
Tab Pro tools
  • play this tab
  • loop segment
  • change instrument
  • show fretboard
  • metronome
Autoscroll
slow
fast
+/-
esc
set tempo
stop
Contributor
Difficulty
Tuning
novice
D A D G B E
-------------------------------------------------------------------------------
                             Follow Me - PAIN (ft. Anette Olzon)
-------------------------------------------------------------------------------
Tabbed by: DreamsOfDemi 

Tuning: Drop D (D A D G B e)


INTRO:
e|---------------------------------------------------------------------------|
B|---------------------------------------------------------------------------|
G|---------------------------------------------------------------------------| x4
D|---------------------------------------------------------------------------|
A|----3---3-3-3-3-3-0---0-0-0-0-0-5---5-5-5-5-5-2---2-2-2-2-2----------------|
D|----3---3-3-3-3-3-0---0-0-0-0-0-5---5-5-5-5-5-2---2-2-2-2-2----------------|


VERSE 1 :
e|---------------------------------------------------------------------------|
B|---------------------------------------------------------------------------|
G|---------------------------------------------------------------------------|
D|----------------------5-5-5-5-5-5-5-5----------------------5-5-5-5-5-5-5/7-| 
A|-7--7-7-6-6-6-6-6-9-9-3-3-3-3-3-3-3-3-7--7-7-6-6-6-6-6-9-9-3-3-3-3-3-3-3/5-|
D|-7--7-7-6-6-6-6-6-9-9-----------------7--7-7-6-6-6-6-6-9-9-----------------|

e|---------------------------------------------------------------------------|
B|---------------------------------------------------------------------------|
G|--------------------------------------7-7-5-5-4-4-1------------------------|
D|----------------------5-5-5-5-5-5-5-5-x-x-x-x-x-x-0------------------------|
A|-7--7-7-6-6-6-6-6-9-9-3-3-3-3-3-3-3-3-5-5-3-3-2-2--------------------------|
D|-7--7-7-6-6-6-6-6-9-9------------------------------------------------------|

e|---------------------------------------------------------------------------|
B|---------------------------------------------------------------------------|
G|---------------------------------------------------------------------------|
D|----------------------5-5-5-5-5-5-5-5----------------------5-5-5-5-5-5-5/7-| 
A|-7--7-7-6-6-6-6-6-9-9-3-3-3-3-3-3-3-3-7--7-7-6-6-6-6-6-9-9-3-3-3-3-3-3-3/5-|
D|-7--7-7-6-6-6-6-6-9-9-----------------7--7-7-6-6-6-6-6-9-9-----------------|

e|---------------------------------------------------------------------------|
B|---------------------------------------------------------------------------|
G|--------------------------------------7-7-5-5-4-4-1------------------------|
D|----------------------5-5-5-5-5-5-5-5-x-x-x-x-x-x-0------------------------|
A|-7--7-7-6-6-6-6-6-9-9-3-3-3-3-3-3-3-3-5-5-3-3-2-2--------------------------|
D|-7--7-7-6-6-6-6-6-9-9------------------------------------------------------|


PRECHORUS
e|---------------------------------------------------------------------------|
B|---------------------------------------------------------------------------|
G|---------------------------------------------------------------------------|
D|---------------------------------------------------------------------------|
A|---0---0-0-0-0-0h2/3---3-3-3-3-3h5/7---7-7-7-7-7-7-7-7-7-7-7-7-7-7-7-7-----|
D|---0---0-0-0-0-0h2/3---3-3-3-3-3h5/7---7-7-7-7-7-7-7-7-7-7-7-7-7-7-7-7-----|

e|---------------------------------------------------------------------------|
B|---------------------------------------------------------------------------|
G|---------------------------------------------------------------------------|
D|---------------------------------------------------------------------------|
A|---0---0-0-0-0-0h2/3---3-3-3-3-3h5/7---7-7-7-7-7-7-3-3-3-3-2---------------|
D|---0---0-0-0-0-0h2/3---3-3-3-3-3h5/7---7-7-7-7-7-7-3-3-3-3-2---------------|


CHORUS:
e|---------------------------------------------------------------------------|
B|---------------------------------------------------------------------------|
G|---------------------------------------------------------------------------| x4
D|---------------------------------------------------------------------------|
A|----3-3-3-3-3-3-3-3-0-0-0-0-0-0-0-0-5-5-5-5-5-5-5-5-2-2-2-2-2-2-2-2--------|
D|----3-3-3-3-3-3-3-3-0-0-0-0-0-0-0-0-5-5-5-5-5-5-5-5-2-2-2-2-2-2-2-2--------|


VERSE 2 : 
e|---------------------------------------------------------------------------|
B|---------------------*palm mute*-------------------------------------------|
G|---------------------------------------------------------------------------|
D|----------------------5-5-5-5-5-5-5-5----------------------5-5-5-5-5-5-5/7-| 
A|-7--7-7-6-6-6-6-6-9-9-3-3-3-3-3-3-3-3-7--7-7-6-6-6-6-6-9-9-3-3-3-3-3-3-3/5-|
D|-7--7-7-6-6-6-6-6-9-9-----------------7--7-7-6-6-6-6-6-9-9-----------------|

e|---------------------------------------------------------------------------|
B|---------------------*play normaly*----------------------------------------|
G|--------------------------------------7-7-5-5-4-4-1------------------------|
D|----------------------5-5-5-5-5-5-5-5-x-x-x-x-x-x-0------------------------|
A|-7--7-7-6-6-6-6-6-9-9-3-3-3-3-3-3-3-3-5-5-3-3-2-2--------------------------|
D|-7--7-7-6-6-6-6-6-9-9------------------------------------------------------|


PRECHORUS
e|---------------------------------------------------------------------------|
B|---------------------------------------------------------------------------|
G|---------------------------------------------------------------------------|
D|---------------------------------------------------------------------------|
A|---0---0-0-0-0-0h2/3---3-3-3-3-3h5/7---7-7-7-7-7-7-7-7-7-7-7-7-7-7-7-7-----|
D|---0---0-0-0-0-0h2/3---3-3-3-3-3h5/7---7-7-7-7-7-7-7-7-7-7-7-7-7-7-7-7-----|

e|---------------------------------------------------------------------------|
B|---------------------------------------------------------------------------|
G|---------------------------------------------------------------------------|
D|---------------------------------------------------------------------------|
A|---0---0-0-0-0-0h2/3---3-3-3-3-3h5/7---7-7-7-7-7-7-3-3-3-3-2---------------|
D|---0---0-0-0-0-0h2/3---3-3-3-3-3h5/7---7-7-7-7-7-7-3-3-3-3-2---------------|


CHORUS:
e|---------------------------------------------------------------------------|
B|---------------------------------------------------------------------------|
G|---------------------------------------------------------------------------| x4
D|---------------------------------------------------------------------------|
A|----3-3-3-3-3-3-3-3-0-0-0-0-0-0-0-0-5-5-5-5-5-5-5-5-2-2-2-2-2-2-2-2--------|
D|----3-3-3-3-3-3-3-3-0-0-0-0-0-0-0-0-5-5-5-5-5-5-5-5-2-2-2-2-2-2-2-2--------|


SOLO:
e|---------------------------------------------------------------------------|
B|---------------------------------------------------------------------------|
G|---------------------------------9~----------9-7~-9----9-7~-9-10~----------|
D|--7~---7h9/10~--9h10/12~--10-9-7~----7-7~-----------7~---------------------|
A|---------------------------------------------------------------------------|
D|---------------------------------------------------------------------------|

e|---------------------------12-10~-12-----12-10~-12-13~-12-10-12~-10--------|
B|----8-10~-8-10-12~-10-8-10~----------10~----------------------------13-10~-|
G|-10------------------------------------------------------------------------|
D|---------------------------------------------------------------------------|
A|---------------------------------------------------------------------------|
D|---------------------------------------------------------------------------|


CHORUS:
e|---------------------------------------------------------------------------|
B|---------------------------------------------------------------------------|
G|---------------------------------------------------------------------------| x8
D|---------------------------------------------------------------------------|
A|----3-3-3-3-3-3-3-3-0-0-0-0-0-0-0-0-5-5-5-5-5-5-5-5-2-2-2-2-2-2-2-2--------|
D|----3-3-3-3-3-3-3-3-0-0-0-0-0-0-0-0-5-5-5-5-5-5-5-5-2-2-2-2-2-2-2-2--------|

*keep it until the end*

************************************

| /   slide up
| h   hammer-on
| ~   vibrato
| x   Mute note


************************************

Thank you! :) 
comments
We did not receive enough feedback on this tab! Please rate:
print report bad tab
1 2 3 4 5
I want to post or [tab]
guest
You may want to rate the tab now too:
select rating
Please do not post tabs as comments. Select "correction" instead!