Oops, an error
Loading. Please wait.

Jabberjaw Bass Tab

by Pain
931 views 1 this week
no commentswrite comment
1 2 3 4 5
please rate
add to favorites
launch autoscroll
font size
0
reset
guitar tuner
Autoscroll
slow
fast
+/-
esc
set tempo
stop
Help us to improve Ultimate-Guitar.com Take our survey!
×
Author
Difficulty
novice
Pain-Jabberjaw from Cartoon Network(Boomerang)

Just follow the tab straight down and thats the structure. Rate please. This tab is %100 right.

Intro
G|-------------------|
D|-------------------|
A|3~-----------------|
E|-5~3~--------------|x3

G|-------------------|
D|-------------------|
A|----3~-------------|
E|1~3~---------------|
_______________________________________________________________
Verse 1
G|--------------------------------------|
D|--------------------------------------|
A|33333333------------------------------|
E|--------1111-3333-1111-3333-5555-3333-|

G|----------------------------------|
D|----------------------------------|
A|33333333---------33333333---------|
E|--------1111-3333--------55553333-|
________________________________________________________________
Verse 2
G|-------------------------------------|
D|-------------------------------------|
A|33333333----3333333333333333---------|
E|--------1111----------------55553333-|
________________________________________________________________
Verse 3
G|------------------------------|
D|------------------------------|
A|------------------------2-2-3-|(The part where he says Jabberjaw!!)
E|111111113333333355555555------|

G|-----------------|
D|-----------------|
A|33333333---------|
E|--------1-1-1-1--| x4
________________________________________________________________
Play Intro
Play Verse 1
Play Veres 2

Then before you play Verse 3 again play this
G|-------------------|
D|-------------------|
A|3--3--3------------|
E|----5--------------|

Now Play all of Verse 3

Heres the trumpet part at the end if you want to play it
G|5------------|
A|-57575-------|
D|------7-5-3~-|
E|-------------|x2

G|5-----9-7-3~-|
A|-57575-------|
D|-------------|
E|-------------|

End
Suggest correction
Give kudos to tab author, rate the tab!
1 2 3 4 5
comments
print report bad tab
guest
You may want to rate the tab now too:
select rating
Wanna post a correction for this tab? Suggest correction