Oops, an error
Loading. Please wait.

Same Old Song Tab

version 1
version 1

Whole song

Interactive

by Pain
2,008 views 3 this week
no commentswrite comment
1 2 3 4 5
please rate
add to favorites
launch autoscroll
font size
0
reset
how to read this tab
guitar tuner
Autoscroll
slow
fast
+/-
esc
set tempo
stop
Help us to improve Ultimate-Guitar.com Take our survey!
×
Author
Song: Same Old Song
Band: PAIN
Tabbed by: unspeakable.elvis@gmail.com

Legend:
.  palm mute

Tuning: 6-string B standard (low to high: B E A D F# b)


Intro
~~~~~
  
|-----------------------------------------------------------------|
|-----------------------------------------------------------------|
|-----------------------------------------------------------------| Play
|-----------------------------------------------------------------| x2
|-2---2---2-------------------------------------------------------|
|-0---0---0-------------------------------------------------------|
  .   .   . 


Main/Chorus Riff (play x2)
~~~~~~~~~~~~~~~~

|-----------------------------------------------------------------|
|-----------------------------------------------------------------|
|-----------------------------------------------------------------|
|---------------------------------2---2---------------------------|
|-2---2---2---2-2-2-2-2-2-2---2-2-0---0---2---2-2-2-2-2-2-2---2-2-|
|-0---0---0---0-0-0-0-0-0-0---0-0---------0---0-0-0-0-0-0-0---0-0-|
  .   .   .   .   . . . . .   .   .   .   .   .   . . . . .   .


|-----------------------------------------------------------------|
|-----------------------------------------------------------------|
|-----------------------------------------------------------------|
|---------------------------------0-------------------------------|
|-2---2---2---2-2-2-2-2-2-2---2-2-0---4---2---2-2-2-2-2-2-2---2-2-|
|-0---0---0---0-0-0-0-0-0-0---0-0-----2---0---0-0-0-0-0-0-0---0-0-|
  .   .   .   .   . . . . .   .   .   .   .   .   . . . . .   . .


Verse (play x2)
~~~~~
     "You're welcome to my world..."
|-----------------------------------------------------------------|
|-----------------------------------------------------------------|
|-----------------------------------------------------------------|
|---------------------------------2---2---2---2-2-----------------|
|-2---2---2---2-2-2-2-2-2-2---2-2-0---0---0---0-0-2-2-2-2-2---2-2-|
|-0---0---0---0-0-0-0-0-0-0---0-0-----------------0-0-0-0-0---0-0-|
  .   .   .   .   . . . . .   .   .   .   .   .   . . . . .   .

     "I'll take you for a spin..."
|-----------------------------------------------------------------|
|-----------------------------------------------------------------|
|-----------------------------------------------------------------|
|-2---2---2---2-2-----------------0---0---0---0-0-----------------|
|-0---0---0---0-0-2-2-2-2-2---2-2-0---0---0---0-0-2-2-2-2-2---2-2-|
|-----------------0-0-0-0-0---0-0-----------------0-0-0-0-0---0-0-|
  .   .   .   .   . . . . .   .   .   .   .   .   . . . . .   .


Bridge
~~~~~~
     "You think it's right..."
|-----------------------------------------------------------------|
|-----------------------------------------------------------------|
|-5---5---5---5---5---5---5---5---5---5---5---5---5---5---2---2---|
|-5---5---5---5---5---5---5---5---5---5---5---5---5---5---0---0---|
|-3---3---3---3---3---3---3---3---3---3---3---3---3---3---0---0---|
|-----------------------------------------------------------------|


     "I've seen so many cross that line..."
|-----------------------------------------------------------------|
|-----------------------------------------------------------------|
|-----------------------------------------------------------------|
|-2---2---2---2---2---2---2---2---2---2---2---2---2---2---2---2---|
|-2---2---2---2---2---2---2---2---2---2---2---2---2---2---2---2---|
|-0---0---0---0---0---0---0---0---0---0---0---0---0---0---0---0---|


     "I've seen them come..."
|-----------------------------------------------------------------|
|-----------------------------------------------------------------|
|-5---5---5---5---5---5---5---5---5---5---5---5---5---5---5---5---|
|-5---5---5---5---5---5---5---5---5---5---5---5---5---5---5---5---|
|-3---3---3---3---3---3---3---3---3---3---3---3---3---3---3---3---|
|-----------------------------------------------------------------|


     "Time will never change    --    it's the same old song..."
|-----------------------------------------------------------------|
|-----------------------------------------------------------------|
|-4---4---4---4---4---4---4---4-----------------------------------|
|-4---4---4---4---4---4---4---4---5---5---5---5---4---4---4---4---|
|-2---2---2---2---2---2---2---2---5---5---5---5---4---4---4---4---|
|---------------------------------3---3---3---3---2---2---2---2---|



Main/Chorus Riff Modulated (after middle bit) (Play x3)
~~~~~~~~~~~~~~~~~~~~~~~~~~

|-----------------------------------------------------------------|
|-----------------------------------------------------------------|
|-----------------------------------------------------------------|
|---------------------------------4---4---------------------------|
|-4---4---4---4-4-4-4-4-4-4---4-4-2---2---4---4-4-4-4-4-4-4---4-4-|
|-2---2---2---2-2-2-2-2-2-2---2-2---------2---2-2-2-2-2-2-2---2-2-|
  .   .   .   .   . . . . .   .   .   .   .   .   . . . . .   .


|-----------------------------------------------------------------|
|-----------------------------------------------------------------|
|-----------------------------------------------------------------|
|-------------------------------------2---------------------------|
|-4---4---4---4-4-4-4-4-4-4---4-4-2---0---4---4-4-4-4-4-4-4---4-4-|
|-2---2---2---2-2-2-2-2-2-2---2-2-0-------2---2-2-2-2-2-2-2---2-2-|
  .   .   .   .   . . . . .   .   .   .   .   .   . . . . .   .


Main/Chorus Finale
~~~~~~~~~~~~~~~~~~

|-----------------------------------------------------------------|
|-----------------------------------------------------------------|
|-----------------------------------------------------------------|
|---------------------------------4---4---------------------------|
|-4---4---4---4-4-4-4-4-4-4---4-4-2---2---4---4-4-4-4-4-4-4---4-4-|
|-2---2---2---2-2-2-2-2-2-2---2-2---------2---2-2-2-2-2-2-2---2-2-|
  .   .   .   .   . . . . .   .   .   .   .   .   . . . . .   .


|-----------------------------------------------------------------|
|-----------------------------------------------------------------|
|-----------------------------------------------------------------|
|-------------------------------------2---4-----------------------|
|-4---4---4---4-4-4-4-4-4-4---4-4-2---0---4-----------------------|
|-2---2---2---2-2-2-2-2-2-2---2-2-0-------2-----------------------|
  .   .   .   .   . . . . .   .   .   .     


End.
Suggest correction
What's this?
You can suggest a correction to this tab. Community and Mods will review your correction and vote to approve or reject it.
comments
We did not receive enough feedback on this tab! Please rate:
print report bad tab
1 2 3 4 5
guest
You may want to rate the tab now too:
select rating
Please do not post tabs as comments. Select "correction" instead!