Oops, an error
Loading. Please wait.
We have an official Shut Your Mouth tab made by UG professional guitarists. Check out the tab »
×
by Pain
11,221 views 15 this week
4 commentsread comments
1 2 3 4 5
x 9
add to favorites
launch autoscroll
font size
0
reset
how to read this tab
guitar tuner
Autoscroll
slow
fast
+/-
esc
set tempo
stop
Tuning
E A D G B E
(Gtr 1) (E A D G B E) - 'Guitar 1'
(Gtr 2) (E A D G B E) - 'Lead'
(Gtr 3) (E A D G B E) - 'Lead 2'
(Gtr 4) (E A D G B E) - 'Goblins'
(Gtr 5) (E A D G B E) - 'Guitar 2'

[Intro]
  Q=121
 4/4
  (Gtr 2)
   E E  E  E  E E  E  E    E E  E  E  E  E  E  E
|------14----15---14-12-|-14---12-14-15-15-14-12-|
|-12------12------------|------------------------|
|-----------------------|------------------------|
|-----------------------|------------------------|
|-----------------------|------------------------|
|-----------------------|------------------------|

   E E  E  E  E E  E  E    E E  E  E E E  E E
|------14----15---14-12-|-10---12-10-9-9-10-9--|
|-12------12------------|----------------------|
|-----------------------|----------------------|
|-----------------------|----------------------|
|-----------------------|----------------------|
|-----------------------|----------------------|

   E E  E  E  E E  E  E    E E  E  E  E  E  E  E
|------14----15---14-12-|-14---12-14-15-15-14-12-|
|-12------12------------|------------------------|
|-----------------------|------------------------|
|-----------------------|------------------------|
|-----------------------|------------------------|
|-----------------------|------------------------|

(Gtr 4)
|  H          H            H          H
|------------12---------|-10---------15----------|
|-12--------------------|------------------------|
|-----------------------|------------------------|
|-----------------------|------------------------|
|-----------------------|------------------------|
|-----------------------|------------------------|

(Gtrs 1, 3)
|  W                       W
|-----------------------|------------------------|
|-----------------------|------------------------|
|-----------------------|------------------------|
|-----------------------|------------------------|
|-----------------------|------------------------|
|-----------------------|------------------------|

   E E  E  E  E E  E  E    E E  E  E E  E     E      E
|------14----15---14-12-|-10---12-10-9--9----10------9-|
|-12------12------------|------------------------------|
|-----------------------|------------------------------|
|-----------------------|------------------------------|
|-----------------------|------------------------------|
|-----------------------|------------------------------|

|  H          H            H         H
|------------12---------|-10---------8-----------------|
|-12--------------------|------------------------------|
|-----------------------|------------------------------|
|-----------------------|------------------------------|
|-----------------------|------------------------------|
|-----------------------|------------------------------|

|  W                       H         E  S S   S +E.
|-----------------------|------------------------------|
|-----------------------|------------------------------|
|-----------------------|------------------------------|
|-----------------------|--------------/4-4\-/9-(9)\---|
|-----------------------|--------------/2-2\-/7-(7)\---|
|-----------------------|------------------------------|

     E E  E  E  E E  E  E    E E  E  E  E  E  E  E
|-------14----15---14-12-|-14---12-14-15-15-14-12-|
|o-12------12------------|------------------------|
|------------------------|------------------------|
|------------------------|------------------------|
|o-----------------------|------------------------|
|------------------------|------------------------|

|    H          H            H          H
|-------------12---------|-10---------15----------|
|o-12--------------------|------------------------|
|------------------------|------------------------|
|------------------------|------------------------|
|o-----------------------|------------------------|
|------------------------|------------------------|

(Gtrs 1, 3, 5)
|    E E  E  E  E E  E  E    E E  E  E  E  E  E  E
|------------------------|------------------------|
|o-----------------------|------------------------|
|------------------------|------------------------|
|---4-4--4--4--9-9--9--9-|--7-7--7--7-12-12-12-12-|
|o--2-2--2--2--7-7--7--7-|--5-5--5--5-10-10-10-10-|
|------------------------|------------------------|

   E E  E  E  E E  E  E    E E  E  E E E  E E
|------14----15---14-12-|-10---12-10-9-9-10-9---|
|-12------12------------|----------------------o|
|-----------------------|-----------------------|
|-----------------------|-----------------------|
|-----------------------|----------------------o|
|-----------------------|-----------------------|

|  H          H            H         H
|------------12---------|-10---------8----------|
|-12--------------------|----------------------o|
|-----------------------|-----------------------|
|-----------------------|-----------------------|
|-----------------------|----------------------o|
|-----------------------|-----------------------|

|  E E  E  E  E E  E  E    E E  E  E E E  E E
|-----------------------|-----------------------|
|-----------------------|------------x-x--x-x--o|
|-----------------------|--7-7--7--7-5-5--5-5---|
|--4-4--4--4--9-9--9--9-|--7-7--7--7-5-5--5-5---|
|--2-2--2--2--7-7--7--7-|--5-5--5--5-3-3--3-3--o|
|-----------------------|-----------------------|

[Verse]
(Gtr 3)
    E S S E E E S S E E   E S S E E  E  S  S  E  E
|----------------------|--------------------------|
|o---------------------|--------------------------|
|----------------------|--------------------------|
|--4-4-4-4-4-9-9-9-9-9-|-7-7-7-7-7-12-12-12-12-12-|
|o-2-2-2-2-2-7-7-7-7-7-|-5-5-5-5-5-10-10-10-10-10-|
|----------------------|--------------------------|

  E S S E E E S S E E   E S S E E E S S E E  (4x)
|---------------------|----------------------|
|---------------------|---------------------o|
|---------------------|-----------5-5-5-5-5--|
|-4-4-4-4-4-9-9-9-9-9-|-7-7-7-7-7-5-5-5-5-5--|
|-2-2-2-2-2-7-7-7-7-7-|-5-5-5-5-5-3-3-3-3-3-o|
|---------------------|----------------------|

[Pre-Chorus]
(Gtrs 1, 3, 5)
  E E E E E E E E    E  E  E  E  E Q.
|-----------------|----------------------|
|-----------------|----------------------|
|-----------------|----------------------|
|-9-9-9-9-9-9-9-9-|-12-12-12-12-14-------|
|-7-7-7-7-7-7-7-7-|-10-10-10-10-12-------|
|-----------------|----------------------|

[Chorus]
    (Gtr 2)
     E E  E  E  E E  E  E    E E  E  E  E  E  E  E
|-------14----15---14-12-|-14---12-14-15-15-14-12-|
|o-12------12------------|------------------------|
|------------------------|------------------------|
|------------------------|------------------------|
|o-----------------------|------------------------|
|------------------------|------------------------|

(Gtr 4)
|    H          H            H          H
|------------------------|------------------------|
|o-----------------------|------------------------|
|------------------------|------------------------|
|-------------14---------|-12---------17----------|
|o-14--------------------|------------------------|
|------------------------|------------------------|

(Gtrs 1, 3, 5)
|    E E  E  E  E E  E  E    E E  E  E  E  E  E  E
|------------------------|------------------------|
|o-----------------------|------------------------|
|------------------------|------------------------|
|---4-4--4--4--9-9--9--9-|--7-7--7--7-12-12-12-12-|
|o--2-2--2--2--7-7--7--7-|--5-5--5--5-10-10-10-10-|
|------------------------|------------------------|

   E E  E  E  E E  E  E    E E  E  E  E E  E E
|------14----15---14-12-|-10---12-10--9-9-10-9---|
|-12------12------------|-----------------------o|
|-----------------------|------------------------|
|-----------------------|------------------------|
|-----------------------|-----------------------o|
|-----------------------|------------------------|

|  H          H            H          H
|-----------------------|------------------------|
|-----------------------|-----------------------o|
|-----------------------|------------------------|
|------------14---------|-12---------------------|
|-14--------------------|------------15---------o|
|-----------------------|------------------------|

|  E E  E  E  E E  E  E    E E  E  E  E E  E E
|-----------------------|------------------------|
|-----------------------|-----------------------o|
|-----------------------|--7-7--7--7--5-5--5-5---|
|--4-4--4--4--9-9--9--9-|--7-7--7--7--5-5--5-5---|
|--2-2--2--2--7-7--7--7-|--5-5--5--5--3-3--3-3--o|
|-----------------------|------------------------|

[Verse]
    (Gtr 3)
    E S S E E E S S E E   E S S E E  E  S  S  E  E
|----------------------|--------------------------|
|o---------------------|--------------------------|
|----------------------|--------------------------|
|--4-4-4-4-4-9-9-9-9-9-|-7-7-7-7-7-12-12-12-12-12-|
|o-2-2-2-2-2-7-7-7-7-7-|-5-5-5-5-5-10-10-10-10-10-|
|----------------------|--------------------------|

  E S S E E E S S E E   E S S E E E S S E E  (4x)
|---------------------|----------------------|
|---------------------|---------------------o|
|---------------------|-----------5-5-5-5-5--|
|-4-4-4-4-4-9-9-9-9-9-|-7-7-7-7-7-5-5-5-5-5--|
|-2-2-2-2-2-7-7-7-7-7-|-5-5-5-5-5-3-3-3-3-3-o|
|---------------------|----------------------|

[Pre-Chorus]
(Gtrs 1, 3, 5)
  E E E E E E E E    E  E  E  E  E Q.
|-----------------|----------------------|
|-----------------|----------------------|
|-----------------|----------------------|
|-9-9-9-9-9-9-9-9-|-12-12-12-12-14-------|
|-7-7-7-7-7-7-7-7-|-10-10-10-10-12-------|
|-----------------|----------------------|

[Chorus]
    (Gtr 2)
     E E  E  E  E E  E  E    E E  E  E  E  E  E  E
|-------14----15---14-12-|-14---12-14-15-15-14-12-|
|o-12------12------------|------------------------|
|------------------------|------------------------|
|------------------------|------------------------|
|o-----------------------|------------------------|
|------------------------|------------------------|

(Gtr 4)
|    H          H            H          H
|------------------------|------------------------|
|o-----------------------|------------------------|
|------------------------|------------------------|
|-------------14---------|-12---------17----------|
|o-14--------------------|------------------------|
|------------------------|------------------------|

(Gtrs 1, 3, 5)
|    E E  E  E  E E  E  E    E E  E  E  E  E  E  E
|------------------------|------------------------|
|o-----------------------|------------------------|
|------------------------|------------------------|
|---4-4--4--4--9-9--9--9-|--7-7--7--7-12-12-12-12-|
|o--2-2--2--2--7-7--7--7-|--5-5--5--5-10-10-10-10-|
|------------------------|------------------------|

   E E  E  E  E E  E  E    E E  E  E  E E  E E   (4x)
|------14----15---14-12-|-10---12-10--9-9-10-9---|
|-12------12------------|-----------------------o|
|-----------------------|------------------------|
|-----------------------|------------------------|
|-----------------------|-----------------------o|
|-----------------------|------------------------|

|  H          H            H          H          (4x)
|-----------------------|------------------------|
|-----------------------|-----------------------o|
|-----------------------|------------------------|
|------------14---------|-12---------------------|
|-14--------------------|------------15---------o|
|-----------------------|------------------------|

|  E E  E  E  E E  E  E    E E  E  E  E E  E E   (4x)
|-----------------------|------------------------|
|-----------------------|-----------------------o|
|-----------------------|--7-7--7--7--5-5--5-5---|
|--4-4--4--4--9-9--9--9-|--7-7--7--7--5-5--5-5---|
|--2-2--2--2--7-7--7--7-|--5-5--5--5--3-3--3-3--o|
|-----------------------|------------------------|

[Interlude]
   E E  E  E  E E  E  E    E E  E  E  E  E  E  E
|------14----15---14-12-|-14---12-14-15-15-14-12-|
|-12------12------------|------------------------|
|-----------------------|------------------------|
|-----------------------|------------------------|
|-----------------------|------------------------|
|-----------------------|------------------------|

(Gtr 4)
|  H          H            H          H
|------------12---------|-10---------15----------|
|-12--------------------|------------------------|
|-----------------------|------------------------|
|-----------------------|------------------------|
|-----------------------|------------------------|
|-----------------------|------------------------|

   E E  E  E  E E  E  E    E E  E  E E E   E  E
|------14----15---14-12-|-10---12-10-9-9--10--9-|
|-12------12------------|-----------------------|
|-----------------------|-----------------------|
|-----------------------|-----------------------|
|-----------------------|-----------------------|
|-----------------------|-----------------------|

|  H          H            H         H
|------------12---------|-10---------8----------|
|-12--------------------|-----------------------|
|-----------------------|-----------------------|
|-----------------------|-----------------------|
|-----------------------|-----------------------|
|-----------------------|-----------------------|

[Chorus]
    (Gtr 2)
     E E  E  E  E E  E  E    E E  E  E  E  E  E  E
|-------14----15---14-12-|-14---12-14-15-15-14-12-|
|o-12------12------------|------------------------|
|------------------------|------------------------|
|------------------------|------------------------|
|o-----------------------|------------------------|
|------------------------|------------------------|

(Gtr 4)
|    H          H            H          H
|------------------------|------------------------|
|o-----------------------|------------------------|
|------------------------|------------------------|
|-------------14---------|-12---------17----------|
|o-14--------------------|------------------------|
|------------------------|------------------------|

(Gtrs 1, 3, 5)
|    E E  E  E  E E  E  E    E E  E  E  E  E  E  E
|------------------------|------------------------|
|o-----------------------|------------------------|
|------------------------|------------------------|
|---4-4--4--4--9-9--9--9-|--7-7--7--7-12-12-12-12-|
|o--2-2--2--2--7-7--7--7-|--5-5--5--5-10-10-10-10-|
|------------------------|------------------------|

   E E  E  E  E E  E  E    E E  E  E  E E  E E
|------14----15---14-12-|-10---12-10--9-9-10-9---|
|-12------12------------|-----------------------o|
|-----------------------|------------------------|
|-----------------------|------------------------|
|-----------------------|-----------------------o|
|-----------------------|------------------------|

|  H          H            H          H
|-----------------------|------------------------|
|-----------------------|-----------------------o|
|-----------------------|------------------------|
|------------14---------|-12---------------------|
|-14--------------------|------------15---------o|
|-----------------------|------------------------|

|  E E  E  E  E E  E  E    E E  E  E  E E  E E
|-----------------------|------------------------|
|-----------------------|-----------------------o|
|-----------------------|--7-7--7--7--5-5--5-5---|
|--4-4--4--4--9-9--9--9-|--7-7--7--7--5-5--5-5---|
|--2-2--2--2--7-7--7--7-|--5-5--5--5--3-3--3-3--o|
|-----------------------|------------------------|

[Outro]
     E E  E  E  E E  E  E    E E  E  E  E  E  E  E  (3x)
|-------14----15---14-12-|-14---12-14-15-15-14-12--|
|o-12------12------------|------------------------o|
|------------------------|-------------------------|
|------------------------|-------------------------|
|o-----------------------|------------------------o|
|------------------------|-------------------------|

|    H          H            H          H           (3x)
|------------------------|-------------------------|
|o-----------------------|------------------------o|
|------------------------|-------------------------|
|-------------14---------|-12---------17-----------|
|o-14--------------------|------------------------o|
|------------------------|-------------------------|

|    E E  E  E  E E  E  E    E E  E  E  E  E  E  E  (3x)
|------------------------|-------------------------|
|o-----------------------|------------------------o|
|------------------------|-------------------------|
|---4-4--4--4--9-9--9--9-|--7-7--7--7-12-12-12-12--|
|o--2-2--2--2--7-7--7--7-|--5-5--5--5-10-10-10-10-o|
|------------------------|-------------------------|

   E E  E  E  E E  E  E    E E  E  E E E  E E   W
|------14----15---14-12-|-10---12-10-9-9-10-9-|------*|
|-12------12------------|---------------------|------*|
|-----------------------|---------------------|------*|
|-----------------------|---------------------|------*|
|-----------------------|---------------------|------*|
|-----------------------|---------------------|------*|

|  W                       W                    W
|-----------------------|---------------------|------*|
|-----------------------|---------------------|------*|
|-----------------------|---------------------|------*|
|-----------------------|---------------------|------*|
|-----------------------|---------------------|------*|
|-----------------------|---------------------|------*|

|  W                       W                    W
|-----------------------|---------------------|------*|
|-----------------------|---------------------|------*|
|-----------------------|---------------------|------*|
|-----------------------|---------------------|------*|
|-----------------------|---------------------|------*|
|-----------------------|---------------------|------*|


************************************

| 
h   - hammer-on
| p   - pull-off
| b   - bend
| pb  - pre-bend
| r   - bend release (if no number after the r, then release immediately)
| /\  - slide into or out of (from/to "nowhere")
| s   - legato slide
| S   - shift slide
|  - natural harmonic
|[n]  - artificial harmonic
|n(n) - tapped harmonic
| ~   - vibrato
| tr  - trill
| T   - tap
| TP  - trem. picking
| PM  - palm muting
|\n/  - tremolo bar dip; n = amount to dip
| \n  - tremolo bar down
| n/  - tremolo bar up
|/n\  - tremolo bar inverted dip
| =   - hold bend; also acts as connecting device for hammers/pulls
|  <> - volume swell (louder/softer)
| x   - on rhythm slash represents muted slash
| o   - on rhythm slash represents single note slash

************************************
Suggest correction
comments
print report bad tab
4 comments total. Showing first comments.
0 reply
niratic 70 Mar 28, 2005 07:00 PM

this is awesome

0 reply
KoRnOnA6String 114 Mar 18, 2006 08:48 AM

This tab CANT be correct cuz these guys use standard B tuning. I have the same tuning so...

0 reply
KoRnOnA6String 114 Sep 25, 2006 03:35 PM

OMG, I was even wrong myself! Peter(Pain) uses standard A tuning, even WRONGER!:-o! And yes, I now have that tuning, lol...

guest
You may want to rate the tab now too:
select rating
Wanna post a correction for this tab? Suggest correction