Oops, an error
Loading. Please wait.

Tear It Up Tab

by Pain
198 views 1 this week
no commentswrite comment
1 2 3 4 5
3 more votes to show rating
add to favorites
launch autoscroll
font size
0
reset
how to read this tab
guitar tuner
Autoscroll
slow
fast
+/-
esc
set tempo
stop
Help us to improve Ultimate-Guitar.com Take our survey!
×
Author
Difficulty
Tuning
novice
A E A D F# B
============================================================================

                         Tear It Up
 
                           Pain

                   Dancing With The Dead
============================================================================


Tabbed by: John Moores
           mooresjw@mail.uc.edu

Tuning: Drop A  (A E A D F# B)


 *  = Palm Mute
 @  = Pinched harmonic
 x  = muted
(5) = natural harmonic on said fret
 b  = bend string
 r  = return string



Intro
0:00

Nothing is played for this part


0:09
Keyboard Part tabbed out
|------------------------------------------------------------|
|-----/10-9-10-----/10-9---------/10/11-10-9-10--------------|
|---7-----------7---------10---7-----------------10--7-------|
|------------------------------------------------------------|
|------------------------------------------------------------|
|------------------------------------------------------------|


Verse 1
0:19

|------------------------------|      |------------------------------|
|------------------------------|      |------------------------------|
|------------------------------|      |------------------------(3)---|
|---------------1--------1-----|  x7  |---------------1--------------|
|--0------------1--0-0-0-1-----|      |--0------------1--0-0-0-------|
|--0--0-0-0-0-0-1--0-0-0-1-----|      |--0--0-0-0-0-0-1--0-0-0-------|
   *  * * * * *    * * *                 *  * * * * *    * * *


|------------------------------|      |------------------------------|
|------------------------------|      |------------------------------|
|------------------------------|      |------------------------------|
|---------------1--------1-----|  x3  |---------------1--------1~~---|
|--0------------1--0-0-0-1-----|      |--0------------1--0-0-0-1~~---|
|--0--0-0-0-0-0-1--0-0-0-1-----|      |--0--0-0-0-0-0-1--0-0-0-1~~---|
   *  * * * * *    * * *                 *  * * * * *    * * *    


Chorus
0:48

|------------------------------------------------|
|------------------------------------------------|
|------------------------------------------------|
|--0----------------------1----------------------|
|--0----------------------1----------------------|
|--0----------------------1----------------------|
   Tear it Up!  (Free fall from the sky)


|------------------------------------------------|
|------------------------------------------------|
|------------------------------------------------|
|--0----------------------1----------------------|
|--0----------------------1----------------------|
|--0----------------------1----------------------|
   Tear it up!  (Kiss your ass goodbye)


|------------------------------------------------|
|------------------------------------------------|
|------------------------------------------------|
|--0----------------------1----------------------|
|--0----------------------1----------------------|
|--0----------------------1----------------------|
      You're   livin'    and  you're learnin'


|------------------------------------------------|
|------------------------------------------------|
|------------------------------------------------|
|--0-----------------1---------------------------|
|--0-----------------1---------------------------|
|--0-----------------1---------------------------|
   Hopefully    before   you    die


|------------------------------------------------|
|------------------------------------------------|
|------------------------------------------------|
|--0----------------1----------------------------|
|--0----------------1----------------------------|
|--0----------------1----------------------------|
   Tear it Up!  (Crack your head)


|------------------------------------------------|
|------------------------------------------------|
|------------------------------------------------|
|--0-------------------1-------------------------|
|--0-------------------1-------------------------|
|--0-------------------1-------------------------|
   Tear it up!  (You know it's gonna end)


|------------------------------------------------|
|------------------------------------------------|
|------------------------------------------------|
|--0-------------------1-------------------------|
|--0-------------------1-------------------------|
|--0-------------------1-------------------------|
    Your  running  'gainst the wall


|------------------------------------------------|
|------------------------------------------------|
|------------------------------------------------|
|--0----------------------1----------------------|
|--0----------------------1----------------------|
|--0----------------------1----------------------|
  Smash your face  and  wake up boy



Verse 2
1:07

|------------------------------|      |------------------------------|
|------------------------------|      |------------------------------|
|------------------------------|      |------------------------(3)---|
|---------------1--------1-----|  x7  |---------------1--------------|
|--0------------1--0-0-0-1-----|      |--0------------1--0-0-0-------|
|--0--0-0-0-0-0-1--0-0-0-1-----|      |--0--0-0-0-0-0-1--0-0-0-------|
   *  * * * * *    * * *                 *  * * * * *    * * *


|------------------------------|      |------------------------------|
|------------------------------|      |------------------------------|
|------------------------------|      |------------------------------|
|---------------1--------1-----|  x3  |---------------1--------1~~---|
|--0------------1--0-0-0-1-----|      |--0------------1--0-0-0-1~~---|
|--0--0-0-0-0-0-1--0-0-0-1-----|      |--0--0-0-0-0-0-1--0-0-0-1~~---|
   *  * * * * *    * * *                 *  * * * * *    * * *    


Chorus
1:36

|------------------------------------------------|
|------------------------------------------------|
|------------------------------------------------|
|--0----------------------1----------------------|
|--0----------------------1----------------------|
|--0----------------------1----------------------|
   Tear it Up!  (Free fall from the sky)


|------------------------------------------------|
|------------------------------------------------|
|------------------------------------------------|
|--0----------------------1----------------------|
|--0----------------------1----------------------|
|--0----------------------1----------------------|
   Tear it up!  (Kiss your ass goodbye)


|------------------------------------------------|
|------------------------------------------------|
|------------------------------------------------|
|--0----------------------1----------------------|
|--0----------------------1----------------------|
|--0----------------------1----------------------|
      You're   livin'    and  you're learnin'


|------------------------------------------------|
|------------------------------------------------|
|------------------------------------------------|
|--0-----------------1---------------------------|
|--0-----------------1---------------------------|
|--0-----------------1---------------------------|
   Hopefully    before   you    die


|------------------------------------------------|
|------------------------------------------------|
|------------------------------------------------|
|--0----------------1----------------------------|
|--0----------------1----------------------------|
|--0----------------1----------------------------|
   Tear it Up!  (Crack your head)


|------------------------------------------------|
|------------------------------------------------|
|------------------------------------------------|
|--0-------------------1-------------------------|
|--0-------------------1-------------------------|
|--0-------------------1-------------------------|
   Tear it up!  (You know it's gonna end)


|------------------------------------------------|
|------------------------------------------------|
|------------------------------------------------|
|--0-------------------1-------------------------|
|--0-------------------1-------------------------|
|--0-------------------1-------------------------|
    Your  running  'gainst the wall


|------------------------------------------------|
|------------------------------------------------|
|------------------------------------------------|
|--0----------------------1----------------------|
|--0----------------------1----------------------|
|--0----------------------1----------------------|
  Smash your face  and  wake up boy



Break
1:55

|-----------|---------------|--------------|--------------------|
|-----------|---------------|--------------|--------------------|
|-----------|---------------|--------------|----------------(3)-|
|-----/7--6-|--/6-----/7--6-|--/6----/7--6-|--/6----/7--6-------|  x2
|--/5-------|------5--------|------5-------|------5-------------|
|-----------|---------------|--------------|--------------------|

Second time let ring

|-------------------------------------|
|-------------------------------------|
|-----use feedback to get-------------|
|--------this harmonic---------(3)----|
|-------------------------------------|
|-------------------------------------|

2:32

|-----------------|
|-----------------|
|-----------------|
|---------0-------|
|-1-1-1---0-------|
|-1-1-1---0-------|
  * * *

Verse
2:33

|------------------------------|      |------------------------------|
|------------------------------|      |------------------------------|
|------------------------------|      |------------------------------|
|---------------1--------1-----|  x7  |---------------1--------1~~---|
|--0------------1--0-0-0-1-----|      |--0------------1--0-0-0-1~~---|
|--0--0-0-0-0-0-1--0-0-0-1-----|      |--0--0-0-0-0-0-1--0-0-0-1~~---|
   *  * * * * *    * * *                 *  * * * * *    * * *  


Chorus
2:52

|------------------------------------------------|
|------------------------------------------------|
|------------------------------------------------|
|--0----------------------1----------------------|
|--0----------------------1----------------------|
|--0----------------------1----------------------|
   Tear it Up!  (Free fall from the sky)


|------------------------------------------------|
|------------------------------------------------|
|------------------------------------------------|
|--0----------------------1----------------------|
|--0----------------------1----------------------|
|--0----------------------1----------------------|
   Tear it up!  (Kiss your ass goodbye)


|------------------------------------------------|
|------------------------------------------------|
|------------------------------------------------|
|--0----------------------1----------------------|
|--0----------------------1----------------------|
|--0----------------------1----------------------|
      You're   livin'    and  you're learnin'


|------------------------------------------------|
|------------------------------------------------|
|------------------------------------------------|
|--0-----------------1---------------------------|
|--0-----------------1---------------------------|
|--0-----------------1---------------------------|
   Hopefully    before   you    die


|------------------------------------------------|
|------------------------------------------------|
|------------------------------------------------|
|--0----------------1----------------------------|
|--0----------------1----------------------------|
|--0----------------1----------------------------|
   Tear it Up!  (Crack your head)


|------------------------------------------------|
|------------------------------------------------|
|------------------------------------------------|
|--0-------------------1-------------------------|
|--0-------------------1-------------------------|
|--0-------------------1-------------------------|
   Tear it up!  (You know it's gonna end)


|------------------------------------------------|
|------------------------------------------------|
|------------------------------------------------|
|--0-------------------1-------------------------|
|--0-------------------1-------------------------|
|--0-------------------1-------------------------|
    Your  running  'gainst the wall


|------------------------------------------------|
|------------------------------------------------|
|------------------------------------------------|
|--0----------------------1----------------------|
|--0----------------------1----------------------|
|--0----------------------1----------------------|
  Smash your face  and  wake up boy



Repeat 2 more times


Keyboard plays intro melody again:

|------------------------------------------------------------|
|-----/10-9-10-----/10-9---------/10/11-10-9-10--------------|
|---7-----------7---------10---7-----------------10--7-------|
|------------------------------------------------------------|
|------------------------------------------------------------|
|------------------------------------------------------------|




Suggest correction
Give kudos to tab author, rate the tab!
1 2 3 4 5
comments
print report bad tab
guest
You may want to rate the tab now too:
select rating
Wanna post a correction for this tab? Suggest correction