Oops, an error
Loading. Please wait.

Mrs Modern Mother Mary tab

1,062 views 9 this week
2 commentsread comments
1 2 3 4 5
2 more votes to show rating
add to favorites
×
Save as Personal and add changes to this tab that will be seen only by you. Learn more ›
×
You can save this tab as Personal to edit and correct it or add notes. All changes will be seen only by you. Learn more »
launch autoscroll
font size
0
reset
how to read this tab
guitar tuner
edit
Autoscroll
slow
fast
+/-
esc
set tempo
stop
Author
Difficulty
Mrs. Modern Mother Mary

There is only one riff played through the song. The only variations come in tone. In the
the riff is played with a tremolo effect. During the choruses, it's played with heavy
During the verses, it's clean with wah. This song is really more for the keyboardist 
the guitarist. I probably would have been better off to tab out all the keyboard parts too.

For completeness, I'll add that you precede the riff with a couple of palm muted muffles
you start the riff the first time.

Tuning: A E A D G B E (Standard 7-string tuning with dropped A)

|--------------------------------------------------------------------------|
|--------------------------------------------------------------------------|
|--------------------------------------------------------------------------|
|--6b7--------6b7---------6b7----------6b7--------6b7---------6b7----------|
|--------------------------------------------------------------------------|
|--4b5--------4b5---------4b5----------4b5--------4b5---------4b5----------|
|--------0--0-------0--0-------0--0-0--------0--0-------0--0-------0--0-0--|

|--------------------------------------------------------------------------|
|--------------------------------------------------------------------------|
|--------------------------------------------------------------------------|
|--4b5--------4b5---------4b5----------4b5--------4b5---------4b5----------|
|--------------------------------------------------------------------------|
|--2b3--------2b3---------2b3----------2b3--------2b3---------2b3----------|
|--------0--0-------0--0-------0--0-0--------0--0-------0--0-------0--0-0--|

This is the whole song. There are no other riffs in it, as hard to believe as it may be.
repeat this the whole way through with the tone instructions above.

Edit: 2015-02-13

The octaves are regularly doubled an octave higher on the D and G strings, and the low notes 
in the riff are A5 power chords rather than single notes. Other than that, it's the only riff 
in the song, played in a 9/4 rhythm.
Suggest correction
Creating personal tab
Creating personal tab
You can edit any tab online and save it as your Personal.

You can edit, replace or remove any tab part or add personal notes – all changes will be seen only by you.

Personal tabs can be accessed anytime from any device, even offline.
Learn more »
Give kudos to tab author, rate the tab!
1 2 3 4 5
comments
print report bad tab
2 comments total.
0 reply
Debml 1,035 Apr 15, 2014 12:42 PM

The pattern written is accurate although the octaves should be a whole step lower, also on the heavier parts I *think* I hear the fifth note of the corresponding power chord being played. Still, it gives a pretty good insight to the song, nice job :)

guest
You may want to rate the tab now too:
select rating
Wanna post a correction for this tab? Suggest correction