Oops, an error
Loading. Please wait.

Atticus Finch Bass Tab

3,038 views 1 this week
no commentswrite comment
1 2 3 4 5
please rate
add to favorites
launch autoscroll
font size
0
reset
guitar tuner
Autoscroll
slow
fast
+/-
esc
set tempo
stop
Help us to improve Ultimate-Guitar.com Take our survey!
×
Author
Difficulty
novice
-------------------------------------------------------------------------------
			     SONG NAME - Band Name
-------------------------------------------------------------------------------

Tabbed By :
e-mail:

Tuning:

Intro x1
G|-----------------------------------------|
D|-----------------------------------------|
A|----------4-3333333-3/1-111----65555555--|
E|555555555-------------------33-----------|

Other part of Intro and Verse x3
G|-------------------------------------|
D|-------------------------------------|
A|--------4-3333333-0-11111--65555555--|
E|5555555------------------33----------|

Fast part x2
G|----------------|-----------------------------------------------------------|
D|----------------|-----------------------------------------------------------|
A|5---6---99999999|888888888888888888888888-7---------4-333333-0-1111---655555|
E|--5---6---------|---------------------------6-555555---------------33-------|


Outro x3
G|---------------------------------------|
D|---------------------------------------|
A|--------4-3-33333-0-1-111---6-5555555--|
E|5-55555------------------33------------|

Rest of outro (x1 each)
G|----------------------------------------------------|
D|----------------------------------------------------|
A|---------4-3-33333-0-1-111---6-5-5-5-5-6-6-6-7-7-7--|
E|-5-55555------------------33------------------------|

G|---------------------------------------|
D|---------------------------------------|
A|--------4-3-33333-0-1-111---6-5555555--|
E|5-55555------------------33------------|

G|----------------------------------|
D|----------------17----------------|
A|--------4-3-3/15---0-1-111----65--|
E|5-55555--------------------33-----|

G|---------------------------------------------------------------------------------------|
D|---------------------------------------------------------------------------------------|
A|5---6--9-9999999-----------------------------------------------------------------------|
E|--5--6-----------5---------------------------------------------------------------------|

| /  slide up
| \  slide down
| h  hammer-on
| p  pull-off
| ~  vibrato
| +  harmonic
| x  Mute note
Suggest correction
Give kudos to tab author, rate the tab!
1 2 3 4 5
comments
print report bad tab
guest
You may want to rate the tab now too:
select rating
Wanna post a correction for this tab? Suggest correction