Oops, an error
Loading. Please wait.

Memorial Day Tab

5,102 views 1 this week
no commentswrite comment
1 2 3 4 5
2 more votes to show rating
add to favorites
launch autoscroll
font size
0
reset
how to read this tab
guitar tuner
Autoscroll
slow
fast
+/-
esc
set tempo
stop
Help us to improve Ultimate-Guitar.com Take our survey!
×
Author
/ - Slide

Verse x4                        Second guitar x1
e|---------------------------|---------------------------------|
B|---------------------------|---------------------------------|
G|----------------------5-5--|-12-12--12-10-10--10-9-9--9-7----|
D|-5-5--5-7-7--7-2-2--2-5-5--|-x--x---x--x--x---x--x-x--x-7-6--|
A|-5-5--5-7-7--7-2-2--2-3-3--|-10-10--10-8--8---8--7-7--7-5-6--|
E|-3-3--3-5-5--5-0-0--0------|------------------------------4--|

Chorus x2                   Pickslide
e|---------------------------------------------------------------|--------------------|
B|---------------------------------------------------------------|--------------------|
G|-7-7--7-7-7--7-7-7--7-5-----7--5-----7-7--7-7-7--7-7-7--7-5----|-7-7--7-7-7--5-5-5--|
D|-7-7--7-7-7--7-7-7--7-5-5---7--5-5---7-7--7-7-7--7-7-7--7-5-5--|-7-7--7-7-7--5-5-5--|
A|-5-5--5-5-5--5-5-5--5-3-5---5--3-5---5-5--5-5-5--5-5-5--5-3-5--|-5-5--5-5-5--3-3-3--|
E|------------------------3--------3--------------------------3--|--------------------|

Verse x4                        Second guitar x1
e|---------------------------|---------------------------------|
B|---------------------------|---------------------------------|
G|----------------------5-5--|-12-12--12-10-10--10-9-9--9-7----|
D|-5-5--5-7-7--7-2-2--2-5-5--|-x--x---x--x--x---x--x-x--x-7-6--|
A|-5-5--5-7-7--7-2-2--2-3-3--|-10-10--10-8--8---8--7-7--7-5-6--|
E|-3-3--3-5-5--5-0-0--0------|------------------------------4--|

Chorus x4
e|---------------------------------------------------------------|---------------------------|
B|---------------------------------------------------------------|---------------------------|
G|-7-7--7-7-7--7-7-7--7-5-----7--5-----7-7--7-7-7--7-7-7--7-5----|------------------------7--|
D|-7-7--7-7-7--7-7-7--7-5-5---7--5-5---7-7--7-7-7--7-7-7--7-5-5--|-7--7-7-7-7-7-7--2-4-5--7--|
A|-5-5--5-5-5--5-5-5--5-3-5---5--3-5---5-5--5-5-5--5-5-5--5-3-5--|-7--7-7-7-7-7-7--2-4-5--5--|
E|------------------------3--------3--------------------------3--|-5--5-5-5-5-5-5--0-2-3-----|

Break
e|------------------------------------------------------------------------------------|
B|------------------------------------------------------------------------------------|
G|-7-7-7--9-9-9--11-11---7-7-7--9-9-9--7-7---7-7-7--9-9-9--11-11---7-7-7--6-6-6--7-7--|
D|-x-x-x--x-x-x--x--x----x-x-x--x-x-x--x-x---x-x-x--x-x-x--x--x----x-x-x--x-x-x--x-x--|
A|-5-5-5--7-7-7--9--9----5-5-5--7-7-7--5-5---5-5-5--7-7-7--9--9----5-5-5--4-4-4--5-5--|
E|------------------------------------------------------------------------------------|

e|--------------------------------------------------------------------------------------|
B|--------------------------------------------------------------------------------------|
G|-7-7-7--9-9-9--11-11---7-7-7--9-9-9--7-7---7-7-7--9-9-9--11-11---12-12-12-12-12/11/9--|
D|-x-x-x--x-x-x--x--x----x-x-x--x-x-x--x-x---x-x-x--x-x-x--x--x----x--x--x--x--x--x--x--|
A|-5-5-5--7-7-7--9--9----5-5-5--7-7-7--5-5---5-5-5--7-7-7--9--9----10-10-10-10-10/9-/7--|
E|--------------------------------------------------------------------------------------|

Here's to the skinned knees, and sutured hearts. Here's to the unhappy endings and all the false starts.
e|-----------------------------|
B|-----------------------------|
G|-7-7-7--5-5-5----------------|
D|-7-7-7--5-5-5--2-2-2--5-5-5--|
A|-5-5-5--3-3-3--2-2-2--5-5-5--|
E|---------------0-0-0--3-3-3--|

Strum the same chords as above for the clean. 
Suggest correction
Give kudos to tab author, rate the tab!
1 2 3 4 5
comments
print report bad tab
guest
You may want to rate the tab now too:
select rating
Wanna post a correction for this tab? Suggest correction