Oops, an error
Loading. Please wait.

Past Tense Future Perfect Tab

1,308 views 3 this week
1 commentread comment
1 2 3 4 5
please rate
add to favorites
launch autoscroll
font size
0
reset
how to read this tab
guitar tuner
Autoscroll
slow
fast
+/-
esc
set tempo
stop
Help us to improve Ultimate-Guitar.com Take our survey!
×
-------------------------------------------------------------------------------
                             Past Tense Future Perfect - Paint it Black
-------------------------------------------------------------------------------
Tabbed by:aleckillscobra
I'm not sure how accurate this is, but it sounds pretty close

Tuning:Standard
Intro
e|---------------------------------------------------------------------------|
B|---------------------------------------------------------------------------|
G|-4~------------------------------------------------------------------------|
D|-4~------------------------------------------------------------------------|
A|-2~------------------------------------------------------------------------|
E|---------------------------------------------------------------------------|

Verse
e|--------------------------------------------------------------------------|
B|--------------------------------------------------------------------------|
G|-4-4-4-4-5-5-5-5----------------------------------------------------------|
D|-4-4-4-4-5-5-5-5-2-2-2-2-2-2-2-2------------------------------------------|
A|-2-2-2-2-5-5-5-5-2-2-2-2-2-2-2-2------------------------------------------|
E|---------3-3-3-3-0-0-0-0-0-0-0-0------------------------------------------|

Chorus
e|--------------------------------------------------------------------------|
B|--------------------------------------------------------------------------|
G|---7----------6~----------6~---------6~----------6~-----------------------|
D|-5-7--7-7-7-------7-7-7------7-7-7-------7-7-7----------------------------|
A|-5-5-------------------------5-5---5-----7-7---7--------------------------|
E|-3----5-5---5-----7-7---7-------------------------------------------------|

Octave fill
e|--------------------------------------------------------------------------|
B|--------------------------------------------------------------------------|
G|-14-13-11-9---------------------------------------------------------------|
D|-x--x--x--x---------------------------------------------------------------|
A|-12-11-9--7---------------------------------------------------------------|
E|--------------------------------------------------------------------------|

Bridge
e|-----------------|---------------------------------------------------------|
B|-----------------|---------------------------------------------------------|
G|---------7-------|--------------------------------9-12-12-12-12-12-12-12-12|
D|-7-7-7---7-7~----|-7-9-10-10-10-10-10-10-10-10-10-9-12-12-12-12-12-12-12-12|
A|-5-5-5-5-5-7~----|-7-9-10-10-10-10-10-10-10-10-10-7-10-10-10-10-10-10-10-10|
E|-------3---5~(x3)|-5-7-8--8--8--8--8--8--8--8--8---------------------------|


Bridge 2 (clean)
e|--------------------------------------------------------------------------|
B|--------------------------------------------------------------------------|
G|-5~------5-5--------------------------------------------------------------|
D|-5~--5-5-5-5-7-7~--12-12-12-----------------------------------------------|
A|-3~--5-5-3-3-7-7~--10-9--10-----------------------------------------------|
E|-----3-3-----5-5~---------------------------------------------------------|

Bridge 3
e|--------------------------------------------------------------------------|
B|--------------------------------------------------------------------------|
G|-7-7-7-7-7-7-4-4-4-4-4-4-2-2-2-2-2-2-2----------7-------------------------|
D|-7-7-7-7-7-7-4-4-4-4-4-4-2-2-2-2-2-2-2--5-5-5-5-7-7-----------------------|
A|-5-5-5-5-5-5-2-2-2-2-2-2-0-0-0-0-0-0-0--5-5-5-5-5-7-----------------------|
E|----------------------------------------3-3-3-3---5-----------------------|
PM * *   * *   * *   * *   * *   * *    


Bridge 4
e|--------------------------------------------------------------------------|
B|--------------------------------------------------------------------------|
G|-7-7-7-7-7-7-4-4-4-4-4-4-2-2-2-2-2-2-7-7-7-11-9---------------------------|
D|-7-7-7-7-7-7-4-4-4-4-4-4-2-2-2-2-2-2-x-x-x-x--x---------------------------|
A|-5-5-5-5-5-5-2-2-2-2-2-2-0-0-0-0-0-0-5-5-5-9--7---------------------------|
E|--------------------------------------------------------------------------|
PM * *   * *   * *   * *   * *   * *    

Outro
e|---------------------------------------------------------------------------------------|
B|---------------------------------------------------------------------------------------|
G|-14-14-12-12-11-11-9-9-12-12-11-9-9-------------------------------12-12-11-11-9-9------|
D|------------------------------------12-12-14-14-12-12-11-11-12-12-----------------12-12|
A|---------------------------------------------------------------------------------------|
E|---------------------------------------------------------------------------------------|



| /  slide up
| \  slide down
| h  hammer-on
| p  pull-off
| ~  vibrato
| +  harmonic
| x  Mute note
===============================================================================
Suggest correction
Give kudos to tab author, rate the tab!
1 2 3 4 5
comments
print report bad tab
1 comment total.
0 reply
djerzinski 189 wrote on April 24 2010, 06:15 am

globally, it s ok. but theres a lot of mistakes.

guest
You may want to rate the tab now too:
select rating
Wanna post a correction for this tab? Suggest correction