Oops, an error
Loading. Please wait.

Pink Slip Tab

1,630 views 1 this week
no commentswrite comment
1 2 3 4 5
3 more votes to show rating
add to favorites
launch autoscroll
font size
0
reset
how to read this tab
guitar tuner
Autoscroll
slow
fast
+/-
esc
set tempo
stop
Help us to improve Ultimate-Guitar.com Take our survey!
×
Difficulty
intermediate
Hey, everybody. I noticed a terrible lack of Paint It Black tabs, so I decided to make 
own.
This is one of my favourite songs by one of my favourite bands.
It's my first tab, but I think it's mostly pretty good.
I'm not sure the chorus is 100% accurate, but it sounds just fine.
The rhythm in the intro and outro is kind of confusing, but if you listen to the song 
can probably get it.

INTRO
e|----------------------------------|--------------------------------------------|
B|----------------------------------|--------------------------------------------|
G|-14-13-14-13-14-16----14-13-11-9--|-14-13-14-13-14-16------9-9-9-9-9-----------|
D|-------------------x3-------------|-------------------x2-----------------------|
A|-12-11-12-11-12-14----12-11-9--7--|-12-11-12-11-12-14------7-7-7-7-7-----------|
E|----------------------------------|--------------------------------------------|

VERSE (I've got war on my mind...)
e|-------------------------------------------------------------------------------|
B|-------------------------------------------------------------------------------|
G|-----7-------9-----------------------------------------------------------------|
D|-7---7---9---9-x4--------------------------------------------------------------|
A|-7---5---9---7-----------------------------------------------------------------|
E|-5-------7---------------------------------------------------------------------|

CHORUS (It's coming back around...)
e|----------------|--------------------|----------------|------------------------|
B|----------------|--------------------|----------------|------------------------|
G|----------------|----------11-13-14--|----------------|---------14-11-9--------|
D|-7-7-7-10-9-10-9|-7--7--7------------|-7-7-7-10-9-10-9|-7--7--7----------------|
A|-7-7-7-10-9-10-9|-7--7--7--9--11-12--|-7-7-7-10-9-10-9|-7--7--7-12-9--7--------|
E|-5-5-5-8—7-8--7-|-5--5--5------------|-5—5-5-8--7-8--7|-5--5--5----------------|

VERSE

CHORUS

BRIDGE (Remain oblivious...)
e|----------------|----------------|----------------|----------------|
B|----------------|----------------|----------------|----------------|
G|---------7------|---------7------|---------7------|----------------|
D|-7---5---7---9-7|-7---5---7---9-7|-7---5---7---9-7|-7--------------|
A|-7---5---5---9-7|-7---5---5---9-7|-7---5---5---9-7|-7--------------|
E|-5---3-------7-5|-5---3-------7-5|-5---3-------7-5|-5--------------|
                    .   .   .

OUTRO
e|----------------------------------|--------------------------------------------|
B|----------------------------------|--------------------------------------------|
G|-14-13-14-13-14-16----14-13-11-9--|-14-13-14-13-14-16-------9------------------|
D|-------------------x3-------------|-------------------x2----9------------------|
A|-12-11-12-11-12-14----12-11-9--7--|-12-11-12-11-12-14-------7------------------|
E|----------------------------------|--------------------------------------------|
Suggest correction
Give kudos to tab author, rate the tab!
1 2 3 4 5
comments
print report bad tab
guest
You may want to rate the tab now too:
select rating
Wanna post a correction for this tab? Suggest correction