Oops, an error
Loading. Please wait.

Womb Envy Bass Tab

1,069 views 1 this week
1 commentread comment
1 2 3 4 5
please rate
add to favorites
launch autoscroll
font size
0
reset
guitar tuner
Tab Pro tools
  • play this tab
  • loop segment
  • change instrument
  • show fretboard
  • metronome
×
Best way to learn
"Womb Envy"
Autoscroll
slow
fast
+/-
esc
set tempo
stop
Contributor
~INTRO~
G|----------------------------------------------------------------||
D|----------------------------------------------------------------||
A|--555555555555555-----------------------------------------------||
E|------------------7-6-5-3---------------------------------------||
~VERSE~
G|----------------------------------------------------------------||
D|----------------------------------------------------------------||
A|----------------------------------------------------------------||
E|--5-5-4-3-3--5-5-7-8-8------------------------------------------||
~CHORUS~
G|----------------------------------------------------------------||
D|----------------------------------------------------------------||
A|---------000000-------------------------------------------------||
E|-7-3-7-5-------7-3-7-10-888888----------------------------------||
~INTERLUDE~
G|----------------------------------------------------------------||
D|----------------------------------------------------------------||
A|----------------------------------------------------------------||
E|--7-7-7-6-5-5-5---7-7-7-9-10-10-10------------------------------||
~BREAKDOWN~
G|----------------------------------------------------------------||
D|----------------------------------------------------------------||
A|----------------------------------------------------------------||
E|--5-4-3--5-7-8--5-4-3--5-7-8-7-8--------------------------------||

Antidote90
comments
We did not receive enough feedback on this tab! Please rate:
print report bad tab
1 2 3 4 5
1 comment total.
0 reply
shugo449 wrote on July 9 2006, 08:56 pm

ur the only 1 to make 1!!!!!!! i aplaude u!

I want to post or [tab]
guest
You may want to rate the tab now too:
select rating
Please do not post tabs as comments. Select "correction" instead!