Oops, an error
Loading. Please wait.

Como Le Hago tab

14 views 1 this week
no commentswrite comment
1 2 3 4 5
3 more votes to show rating
add to favorites
×
Save as Personal and add changes to this tab that will be seen only by you. Learn more ›
×
You can save this tab as Personal to edit and correct it or add notes. All changes will be seen only by you. Learn more »
launch autoscroll
font size
0
reset
how to read this tab
guitar tuner
edit
Autoscroll
slow
fast
+/-
esc
set tempo
stop
          D      G         A
e-2-3-2-2/3-2-2--------------
B--------------3-3-0-0-2-3-2-
G----------------------------
D----------------------------
A----------------------------
E----------------------------

e-------
B-------
G-------
D-------
A-4-2-0-
E-------
          D      G         A
e-2-3-2-2/3-2-2--------------
B--------------3-3-0-0-2-3-2-
G----------------------------
D----------------------------
A----------------------------
E----------------------------

e-------
B-------
G-------
D-------
A-4/5-4-
E-------
         F#m
e-------------------
B-2-3-2-3/5-3-3-2-0-
G-------------------
D-------------------
A-------------------
E-------------------
       Bm
e-7-5--3-2-
B-8-7--5-3-
G----------
D----------
A----------
E----------
                    Em                    A  G
si hasta cuando respiro el aire me sabe a ti

e-5-5-5-7-8-9-8-7-5--12-10-
B--------------------------
G-6-6-6-7-8-9-8-7-6--12-11-
D--------------------------
A--------------------------
E--------------------------

D                     F#m                  F#m-A
Tengo muchas ganas de decirte que te quiero
G          Em            A                 D
pero no me atrevo pues no se si este amor es bueno
          A
para los dos.
D                        F#m
contemplando el cielo me pongo a recordar
G        Em            A
cuanto tu mirar a mi me hace suspirar
 D                         A
 y es así que me enamore de ti,
Bm                   F#m
pero no quiero que sepas jamás y
G            Em       A
no se como le voy a hacer y dime

CORO:

     D           G            A
Como le hago para no pensar en ti
                D       G          A
 si cualquier camino me lleva hacia ti
    G                F#m        Bm
como le hago si esto no esta en mi
                 e-7-5--3-2-
                 B-8-7--5-3-
                 G----------
                 D----------
                 A----------
                 E----------
                    Em                    A
si hasta cuando respiro el aire me sabe a ti

e-5-5-5-7-8-9-8-7-5--12-10-
B--------------------------
G-6-6-6-7-8-9-8-7-6--12-11-
D--------------------------
A--------------------------
E--------------------------

D                          F#m                  G
pues ya estoy cansado de no decir que te quiero pues
         Em            A                          D
cando te veo mi mente me responde lento y mi instinto
                    A     Bm               F#m
me grita que te quiero pero no quiero que sepas jamás
     G            Em      A
y no se como le voy a hacer y dime

CORO:

    D           G            A
Como le hago para no pensar en ti
                D       G          A
 si cualquier camino me lleva hacia ti
    G                F#m        Bm
como le hago si esto no esta en mi
                    Em                    A
si hasta cuando respiro el aire me sabe a ti

e-5-5-5-7-8-9-
B-------------
G-6-6-6-7-8-9-
D-------------
A-------------
E-------------

          G           Em             D
como le hago, como le hago, como le hago.

 D
e------3-
B-----2--
G----3---
D---0----
A--0-----
E-0------

BUENO PS. AY ESTA
AVER SI LES GUSTA

            
            
Suggest correction
Creating personal tab
Creating personal tab
You can edit any tab online and save it as your Personal.

You can edit, replace or remove any tab part or add personal notes – all changes will be seen only by you.

Personal tabs can be accessed anytime from any device, even offline.
Learn more »
Give kudos to tab author, rate the tab!
1 2 3 4 5
comments
print report bad tab
guest
Wanna post a correction for this tab? Suggest correction