Oops, an error
Loading. Please wait.

Bitter Tab

by Palace
1,273 views 60 this week
no commentswrite comment
1 2 3 4 5
x 4
add to favorites
launch autoscroll
font size
0
reset
how to read this tab
guitar tuner
Autoscroll
slow
fast
+/-
esc
set tempo
stop
Author
Difficulty
Tuning
novice
E A D G B E
About this tab version
Easy to play, uses four lowest strings on two frets. Was this info helpful? Yes No
This part is played before both verses, and is slower than the rest of the song.
Correction:
e|---------------------------------|
B|---------------------------------|
G|------------------11-13-11-------|
D|------11---14---13---------------|   x2
A|--11--11---11--------------------|
E|--0---0----0---------------------|

Min. 2:55
b= bending.

e|---------------------------------|
B|---------------------------------|
G|---------------------------------|
D|---------------------------------|  Repeat until the end of the song.
A|------7-9-----7-9-----7-9-9b-----|
E|--7-9------7-9-----7-9-------9---|


Ver. 2:
e|---------------------------------|---------------------------------|
B|---------------------------------|---------------------------------|
G|---------------------------------|---------------------------------|
D|---------------------------4-6-4-|---------------------------6-4---|
A|-----------4-------6-----6-------|-----------4-------6-----6-----6-|
E|-4-4-----4-------4---------------|-4-4-----4-------4---------------|

e|---------------------------------|---------------------------------|
B|---------------------------------|---------------------------------|
G|---------------------------4-----|---------------------------------|
D|-------------------------4---6-4-|---------------------------------|
A|-----------4-------6-------------|-----------4-------6-------------|
E|-4-4-----4-------4---------------|-4-4-----4-------4---------------|
Suggest correction
comments
print report bad tab
guest
You may want to rate the tab now too:
select rating
Wanna post a correction for this tab? Suggest correction