Oops, an error
Loading. Please wait.

Mr Doctor Man tab

version 1
version 1

Whole song

  • Everything is distorted pretty heavily except from... Show more
1,813 views 159 this week
2 commentsread comments
1 2 3 4 5
x 3
add to favorites
×
Save as Personal and add changes to this tab that will be seen only by you. Learn more ›
×
You can save this tab as Personal to edit and correct it or add notes. All changes will be seen only by you. Learn more »
launch autoscroll
font size
0
reset
how to read this tab
guitar tuner
edit
Autoscroll
slow
fast
+/-
esc
set tempo
stop
Author
Difficulty
About this tab version
Everything is distorted pretty heavily except from the interlude (interlude is softer). Was this info helpful? Yes No
[Intro]
e|----------------------------------------------------------------------------------------|
B|----------------------------------------------------------------------------------------|
G|----------------------------------------------------------------------------------------|
D|----------------------------------------------------------------------------------------|
A|-------10h12----------12p10-----10-------10s12-10-------10h12----------12p10-----10-----|
E|-12-12-------10-10-10-------7-7----7-7s8----------12-12-------10-10-10-------7-7----7s8-|

[Verse]
e|----------------------------------------------------------------------------------------|
B|----------------------------------------------------------------------------------------|
G|----------------------------------------------------------------------------------------|
D|----------------------------------------------------------------------------------------|
A|----------------------------------------------------------------------------------------|
E|-12-12-12-12-12-12-12-12-10-10-10-10-10-10-10-10-7-7-7-7-7-7-7-7-8-8-8-8-8-8-8-8-12-12--|


e|----------------------------------------------------------------------------------------|
B|----------------------------------------------------------------------------------------|
G|----------------------------------------------------------------------------------------|
D|----------------------------------------------------------------------------------------|
A|----------------------------------------------------------------------------------------|
E|-12-12-12-12-12-12-10-10-10-10-10-10-10-10-7-7-7-7-7-7-7-7-8-8-8-8----------------------|

(Strum all the chords once and let ring, except the last B chord that goes into the chorus.)

Em                                              Am

Up, down but the world is spinning round and round, 
                                       C
I see this place ain't big enough for me,
                       B
I want you to take me away, way, way, way baby.


Em                                              Am
Up, down but the world is spinning round and round, 
                                       C
I see this place ain't big enough for me,
                       B
I want you to take me away, way, way, way what did you want to say?

[Chorus]
e|----------------------------------------------------------------------------------------|
B|-8-8-8-8-8-8-8-8------------------------------------------------------------------------|
G|-9-9-9-9-9-9-9-9-9--9--9--9--9--9--9--9--6-6-6-6-6-6-6-6-8-8-8-8-8-8-8-8----------------|
D|-9-9-7-9-9-9-9-9-10-10-10-10-10-10-10-10-7-7-7-7-7-7-7-7-9-9-9-9-9-9-9-9----x2----------|
A|-7-7-7-7-7-7-7-7-10-10-10-10-10-10-10-10-7-7-7-7-7-7-7-7-9-9-9-9-9-9-9-9----------------|
E|-----------------8--8--8--8--8--8--8--8--5-5-5-5-5-5-5-5-7-7-7-7-7-7-7-7----------------|

[Verse]
e|----------------------------------------------------------------------------------------|
B|----------------------------------------------------------------------------------------|
G|----------------------------------------------------------------------------------------|
D|-14-12-------14p12----------14-12--------------------------------------------14-12------|
G|-------14-14-------14-14-14-------14-14s15-15-15-14-12s10----10-12s14b-12h14-------14---|
E|----------------------------------------------------------12----------------------------|

e|---------------|
B|---------------|
G|---------------|
D|----14-12------|
A|-14-------14---|
E|---------------|

e|---------------------------------------------------------------------------------------|
B|---------------------------------------------------------------------------------------|I tink Sebastian
G|---------------------------------------------------------------------------------------|plays this until
D|---------------------------------------------------------------------------------------|the chorus?
A|---------------------------------------------------------------------------------------|
E|-12-12-12-12-12-12-12-12-10-10-10-10-10-10-10-10-7-7-7-7-7-7-7-7-8-8-8-8-8-8-8-8-------|

[Chorus]
e|----------------------------------------------------------------------------------------|
B|-8-8-8-8-8-8-8-8------------------------------------------------------------------------|
G|-9-9-9-9-9-9-9-9-9--9--9--9--9--9--9--9--6-6-6-6-6-6-6-6-8-8-8-8-8-8-8-8----------------|
D|-9-9-7-9-9-9-9-9-10-10-10-10-10-10-10-10-7-7-7-7-7-7-7-7-9-9-9-9-9-9-9-9----x2----------|
A|-7-7-7-7-7-7-7-7-10-10-10-10-10-10-10-10-7-7-7-7-7-7-7-7-9-9-9-9-9-9-9-9----------------|
E|-----------------8--8--8--8--8--8--8--8--5-5-5-5-5-5-5-5-7-7-7-7-7-7-7-7----------------|

[Bridge]
e|----------------------------------------------------------------------------------------| I'm not too sure
B|-8--------------------------------------------------------------------------------------|about the strumming
G|-9------------4-------------6-------------8---------------------------------------------|pattern here but 
D|-9------------5-------------7-------------9---------------------------------------------|these are the 
A|-7------------5-------------7-------------9---------------------------------------------|chords.
E|----------------------------------------------------------------------------------------|

[Interlude]
e|----------------------------------------------------------------------------------------|
B|----------------------------------------------------------------------------------------|
G|---4-----1-----2------------------------------------------------------------------------|
D|----2---2-2---2-2-----------------------------------------------------------------------|
A|--2--2-0---2-3---3-7-5-3-2--------------------------------------------------------------|
E|----------------------------------------------------------------------------------------|

Em                      Am
Stuck in the boom boom room
                    
People are dancing after their operation
Em              Am
I want you to move
     C                B
But nobody's moving after their medicaton
Em               Am
I can't hear the room
C                    B
People are dancing after their operation
Em           Am
I want you to move
    C                B
But nobody's moving at all

[Chorus]
e|----------------------------------------------------------------------------------------|
B|-8-8-8-8-8-8-8-8------------------------------------------------------------------------|
G|-9-9-9-9-9-9-9-9-9--9--9--9--9--9--9--9--6-6-6-6-6-6-6-6-8-8-8-8-8-8-8-8----------------|
D|-9-9-7-9-9-9-9-9-10-10-10-10-10-10-10-10-7-7-7-7-7-7-7-7-9-9-9-9-9-9-9-9----x2----------|
A|-7-7-7-7-7-7-7-7-10-10-10-10-10-10-10-10-7-7-7-7-7-7-7-7-9-9-9-9-9-9-9-9----------------|
E|-----------------8--8--8--8--8--8--8--8--5-5-5-5-5-5-5-5-7-7-7-7-7-7-7-7----------------|

[Outro]
Em Am C B 
Em Am C B Em (Let the last chord ring)



************************************

| h  Hammer-on
| p  Pull-off
| x  Dead note
| b  Bend
| s  
Slide

************************************

            
            
Suggest correction
Creating personal tab
Creating personal tab
You can edit any tab online and save it as your Personal.

You can edit, replace or remove any tab part or add personal notes – all changes will be seen only by you.

Personal tabs can be accessed anytime from any device, even offline.
Learn more »
Give kudos to tab author, rate the tab!
1 2 3 4 5
comments
print report bad tab
2 comments total.
+1 reply
rjmarquand 10 Mar 24, 2017 04:14 PM

Great tab! Only thing is for the interlude I play
e|--------------
B|--0----1----1-
G|---0----2----0
D|-2----2----2--
A|2----0----3---
E|--------------
And then a B chord. It's basically just picking the A, D, B + G strings (in that order) while holding an Em chord, an Am, then a C. That's how I do it anyway. It's way easier and sounds better to me.

guest
You may want to rate the tab now too:
select rating
Wanna post a correction for this tab? Suggest correction