Oops, an error
Loading. Please wait.

Theres A Honey chords

3,373 views 273 this week
no commentswrite comment
1 2 3 4 5
x 9
add to favorites
×
Save as Personal and add changes to this tab that will be seen only by you. Learn more ›
×
You can save this tab as Personal to edit and correct it or add notes. All changes will be seen only by you. Learn more »
launch autoscroll
font size
0
reset
transpose
0
reset
display chords
guitar tuner
edit
Autoscroll
slow
fast
+/-
esc
set tempo
stop
About this tab version
It sounds a lot fuller when the chords are played barred (D on 10 fret, G on 3, A on 5, B on 7). Was this info helpful? Yes No
Strumming
There is no strumming pattern for this song yet. and get +5 IQ
[Intro] X2
e|----------------------------------------------------------------------------------------------------------|
B|----------------10---------------------------10----------------------10-----------------------------------|
G|------9--11--9-------11--9--------11-11---9-------11-9----11-11---9------11--9--------9--11-9-------------|
D|--12----------------------------------------------------------------------------12-12---------------------|
A|----------------------------------------------------------------------------------------------------------|
E|----------------------------------------------------------------------------------------------------------|

[Verse 1]
D
Live in my heart if you want to
G
I know you hate it when I'm drunk
D
But, it's not easy
I wanna feel
G
Something different for once

[Verse 2]
D
I know my heart is killing you, killing you
G
I can't help it
'Cause I'm feeling you, feeling you
D
Oh, honey, please don't say you're gonna leave me
G
Honey, please don't say you're gonna leave me

[Pre-Chorus] X2
D
I would give you my body
A                      Bm
But am I sure that you want me
Bm                G
Am I sure that you want me?

[Chorus]
D
I would give you my body
A                      Bm
But am I sure that you want me
Bm                  G
Am I sure that you want me?
D
I would give you my body
A                      Bm
But am I sure that you want me
Bm                  G
Am I sure that you want me?

[Transition into Verse 3]
e|----------------------------------------------------------------------------------------------------------|
B|-------------------10---------------------------10----------------------10--------------------------------|
G|------11--11---9-------11--9--------11-11---9--------11-9----11-11---9------11--9---------9--11-9---------|
D|------------------------------------------------------------------------------------12-12-----------------|
A|----------------------------------------------------------------------------------------------------------|
E|----------------------------------------------------------------------------------------------------------|

[Verse 3]
D
Oh, when you lie awake
                     G
'Cos I ruined your night
Well, honey, that's what I'm good at
D
Now you're not answering
                     G
'Cos I ruined your mind
Well, honey, you knew I'd do that

[Chorus]
D
I would give you my body
A                      Bm
But am I sure that you want me
Bm                  G
Am I sure that you want me?
D
I would give you my body
A                      Bm
But am I sure that you want me
Bm                  G
Am I sure that you want me?

[Bridge] 
(NO GUITAR)
And there's somebody that I'm holding back for
And you see, I'd like to keep your heart for me
And there's somebody that I'm holding back for
And the karma can wait
I wanna see you
Does she know?

[Chorus]
D
I would give you my body
A                      Bm
But am I sure that you want me
Bm                  G
Am I sure that you want me?
D
I would give you my body
A                      Bm
But am I sure that you want me
Bm                  G
Am I sure that you want me?
D
I would give you my body
A                      Bm
But am I sure that you want me
Bm                  G
Am I sure that you want me?
D
I would give you my body
A                      Bm
But am I sure that you want me
Bm                 G
Am I sure that you want me?

[Outro] X2
e|----------------------------------------------------------------------------------------------------------|
B|-------------------10---------------------------10----------------------10--------------------------------|
G|------11--11---9-------11--9--------11-11---9--------11-9----11-11---9------11--9---------9--11-9---------|
D|------------------------------------------------------------------------------------12-12-----------------|
A|----------------------------------------------------------------------------------------------------------|
E|----------------------------------------------------------------------------------------------------------|

            
            
Suggest correction
Creating personal tab
Creating personal tab
You can edit any tab online and save it as your Personal.

You can edit, replace or remove any tab part or add personal notes – all changes will be seen only by you.

Personal tabs can be accessed anytime from any device, even offline.
Learn more »
comments
print report bad tab
guest
You may want to rate the tab now too:
select rating
Wanna post a correction for this tab? Suggest correction