Oops, an error
Loading. Please wait.

Pet Carrot Tab

100 views 6 this week
no commentswrite comment
1 2 3 4 5
2 more votes to show rating
add to favorites
launch autoscroll
font size
0
reset
how to read this tab
guitar tuner
Autoscroll
slow
fast
+/-
esc
set tempo
stop
Help us to improve Ultimate-Guitar.com Take our survey!
×
Author
Difficulty
Tuning
novice
C G C F A D
[Intro]
D|----------------------------------|
A|----------------------------------|
F|----------------------------------|
C|-----4-------4-------4-------4b---|
G|---0---0---3---3---0---0---3------|
C|-0-------0-------0-------0--------|
(x2)


[Verse]
D|----------------------------------|
A|----------------------------------|
F|----------------------------------|
C|-----4-------4-------4-------4----|
G|---0---0---3---3---0---0---3---3--|
C|-0-------0-------0-------0--------|
(x4)

[Chorus]
D|-----------------------------------------|
A|-----7--7-7-----7--7-7-----7--7-7-----6--|
F|-----7--7-7-----7--7-7-----7--7-7-----6--|
C|-7-7-7--7-7-7-7-7--7-7-7-7-7--7-7-7-7-6--|
G|-5-5-5--5-5-5-5-5--5-5-5-5-5--5-5-5-5-4--|
C|-5-5--------5-5--------5-5--------5-5-4--|
(x2)

[Post Chorus]
D|-----------------------------------------|
A|--------7--7-7--7-7---------7--7-7--7-7--|
F|-9h11---7--7-7--7-7--9h11---7--7-7--7-7--|
C|------7-7--7-7--7-7-------7-7--7-7--7-7--|
G|-7-7--5-5--5-5--5-5--7-7--5-5--5-5--5-5--|
C|-----------------------------------------|
(x2)

[Pre Verse]
D|-----------------------------------|
A|-----------------------------------|
F|-----------------------------------|
C|-----------------------------------|
G|-----0-0-----3-3-----0-0-----3-3b--|
C|-0-0-----0-0-----0-0-----0-0-------|
(x2)


[Verse]
D|----------------------------------|
A|----------------------------------|
F|----------------------------------|
C|-----4-------4-------4-------4----|
G|---0---0---3---3---0---0---3---3--|
C|-0-------0-------0-------0--------|
(x4)

[Chorus]
D|-----------------------------------------|
A|-----7--7-7-----7--7-7-----7--7-7-----6--|
F|-----7--7-7-----7--7-7-----7--7-7-----6--|
C|-7-7-7--7-7-7-7-7--7-7-7-7-7--7-7-7-7-6--|
G|-5-5-5--5-5-5-5-5--5-5-5-5-5--5-5-5-5-4--|
C|-5-5--------5-5--------5-5--------5-5-4--|
(x2)

[Post Chorus]
D|-----------------------------------------|
A|--------7--7-7--7-7---------7--7-7--7-7--|
F|-9h11---7--7-7--7-7--9h11---7--7-7--7-7--|
C|------7-7--7-7--7-7-------7-7--7-7--7-7--|
G|-7-7--5-5--5-5--5-5--7-7--5-5--5-5--5-5--|
C|-----------------------------------------|
(x4)

[Outro Lead]
D|--------------------------|
A|--------------------------|
F|-11-11-11-11-11-11-14-14--|
C|--------------------------|
G|--------------------------|
C|--------------------------|
(x4)


************************************
| h   Hammer-on
| b   Bend
************************************
Suggest correction
Give kudos to tab author, rate the tab!
1 2 3 4 5
comments
print report bad tab
guest
You may want to rate the tab now too:
select rating
Wanna post a correction for this tab? Suggest correction