Oops, an error
Loading. Please wait.

Let Down tab

619 views 21 this week
1 commentread comment
1 2 3 4 5
3 more votes to show rating
add to favorites
×
Save as Personal and add changes to this tab that will be seen only by you. Learn more ›
×
You can save this tab as Personal to edit and correct it or add notes. All changes will be seen only by you. Learn more »
launch autoscroll
font size
0
reset
how to read this tab
guitar tuner
edit
Autoscroll
slow
fast
+/-
esc
set tempo
stop
Author
Difficulty
Artist: Palisades
Song: let down

tabbed by:    Dropdeee
tuning:       Standard
efects:       Clean & Distortion
video:        https://www.youtube.com/watch?v=wcQX7mfkepA

[Intro] 
(Clean)             
e|--8-------|-6-------|-1---3-------|-1-----10|-8-------|-6-------|-1---3-------|-6-------|
B|--8-------|-6-------|-1---3-------|-1-------|-8-------|-8-------|-1---3-------|-6-------|
G|--8-------|-7-------|-2---3-------|-2-------|-8-------|-8-------|-2---3-------|-7-------|
D|--10------|-8-------|-3---5-------|-3-------|-8-------|-8-------|-3---5-------|-8-------|
A|--10------|-8-------|-3---5-------|-3-------|-6-------|-6-------|-3---5-------|-8-------|
E|--8-------|-6-------|-1---3-------|-1-------|-6-------|-6-------|-1---3-------|-6-------|

[Verse/Pre-Chorus] 
(Clean)
e|--6-------|-6-------|-8----10------|-8--------|-10--|
B|--8-------|-8-------|-10---11------|-10-------|-11--|
G|--8-------|-8-------|-10---12------|-10-------|-12--|
D|--8-------|-8-------|-10---12------|-10-------|-12--| (x5)
A|--6-------|-6-------|-8----10------|-8--------|-10--|
E|--6-------|-6-------|-8----10------|-8--------|-10--|

e|--6-------|-6-------|-8----10------|-8--------------|
B|--8-------|-8-------|-10---11------|-10-------------|
G|--8-------|-8-------|-10---12------|-10-------------|
D|--8-------|-8-------|-10---12------|-10-------------| 
A|--6-------|-6-------|-8----10------|-8--------------|
E|--6-------|-6-------|-8----10------|-8--------------|
                                       ^ staccato

[Chorus] 
(Distortion)
e|--6---6-------|-6---6-6-6---8---|-10---10-------|-8--8--8--8--8----10--|
B|--8---8-------|-8---8-8-8---10--|-11---11-------|-10-10-10-10-10---11--|
G|--8---8-------|-8---8-8-8---10--|-12---12-------|-10-10-10-10-10---12--|
D|--8---8-------|-8---8-8-8---10--|-12---12-------|-10-10-10-10-10---12--|
A|--6---6-------|-6---6-6-6---8---|-10---10-------|-8--8--8--8--8----10--|
E|--6---6-------|-6---6-6-6---8---|-10---10-------|-8--8--8--8--8----10--|

e|--6---6-------|-6---6-6-6---8---|-10---10-10-10---13--|-8--------------|
B|--8---8-------|-8---8-8-8---10--|-11---11-11-11---15--|-10-------------|
G|--8---8-------|-8---8-8-8---10--|-12---12-12-12---15--|-10-------------|
D|--8---8-------|-8---8-8-8---10--|-12---12-12-12---15--|-10-------------|
A|--6---6-------|-6---6-6-6---8---|-10---10-10-10---13--|-8--------------|
E|--6---6-------|-6---6-6-6---8---|-10---10-10-10---13--|-8--------------|

e|--6---6-6-6---6/8---3---3-------|-10---10-10-10---10\8--|-8----8--8--8--8--10-|
B|--8---8-8-8---8/10--4---4-------|-11---11-11-11---11\10-|-10---10-10-10-10-11-|
G|--8---8-8-8---8/10--5---5-------|-12---12-12-12---12\10-|-10---10-10-10-10-12-|
D|--8---8-8-8---8/10--5---5-------|-12---12-12-12---12\10-|-10---10-10-10-10-12-|
A|--6---6-6-6---6/8---3---3-------|-10---10-10-10---10\8--|-8----8--8--8--8--1--|
E|--6---6-6-6---6/8---3---3-------|-10---10-10-10---10\8--|-8----8--8--8--8--10-|

e|--6---6-------|-6---6-6-6-6--8---|-10---10-10-10---10---|-13--------------|
B|--8---8-------|-8---8-8-8-8--10--|-11---11-11-11---11---|-15--------------|
G|--8---8-------|-8---8-8-8-8--10--|-12---12-12-12---12---|-15--------------|
D|--8---8-------|-8---8-8-8-8--10--|-12---12-12-12---12---|-15--------------|
A|--6---6-------|-6---6-6-6-6--8---|-10---10-10-10---10---|-13--------------|
E|--6---6-------|-6---6-6-6-6--8---|-10---10-10-10---10---|-13---(8-10-8-6)-|

[Pre-Verse] 
(Clean)
e|--6-------|-6-------|-8----10------|-8--------|
B|--8-------|-8-------|-10---11------|-10-------|
G|--8-------|-8-------|-10---12------|-10-------|
D|--8-------|-8-------|-10---12------|-10-------|
A|--6-------|-6-------|-8----10------|-8--------|
E|--6-------|-6-------|-8----10------|-8--------|

[Verse] 
(Clean)
e|--6-------|-6-------|-8----10------|-8--------|-10--|
B|--8-------|-8-------|-10---11------|-10-------|-11--|
G|--8-------|-8-------|-10---12------|-10-------|-12--|
D|--8-------|-8-------|-10---12------|-10-------|-12--| 
A|--6-------|-6-------|-8----10------|-8--------|-10--|
E|--6-------|-6-------|-8----10------|-8--------|-10--|

e|--6-------|-6-------|-8----10------|-8--------|
B|--8-------|-8-------|-10---11------|-10-------|
G|--8-------|-8-------|-10---12------|-10-------|
D|--8-------|-8-------|-10---12------|-10-------|
A|--6-------|-6-------|-8----10------|-8--------|
E|--6-------|-6-------|-8----10------|-8--------|

(Distortion)
e|------------|-----------------|---------------------|---------------|----------|
B|------------|-----------------|---------------------|---------------|----------|
G|--8-8-8-8---|-----------------|-------12-12-12-12---|-10-10-10-10---|-10----12-|
D|--8-8-8-8---|-10-10-10-10-----|-10-10-12-12-12-12---|-10-10-10-10---|-10----12-|
A|--6-6-6-6---|-10-10-10-10-----|-10-10-10-10-10-10---|-8--8--8--8----|-8-----10-|
E|------------|-8--8--8--8------|-8--8----------------|---------------|----------|

e|------------|---------------|--------------------------------------------------|
B|------------|---------------|--------------------------------------------------|
G|--8-8-8-8---|---------------|-------12-----------------------------------------|
D|--8-8-8-8---|-10-10-10-10---|-10----12-----------------------------------------|
A|--6-6-6-6---|-10-10-10-10---|-10----10-----------------------------------------|
E|------------|-8--8--8--8----|-8------------------------------------------------|

[Chorus] 
(Distortion)
e|--6---6-------|-6---6-6-6---8---|-10---10-------|-8--8--8--8--8----10--|
B|--8---8-------|-8---8-8-8---10--|-11---11-------|-10-10-10-10-10---11--|
G|--8---8-------|-8---8-8-8---10--|-12---12-------|-10-10-10-10-10---12--|
D|--8---8-------|-8---8-8-8---10--|-12---12-------|-10-10-10-10-10---12--|
A|--6---6-------|-6---6-6-6---8---|-10---10-------|-8--8--8--8--8----10--|
E|--6---6-------|-6---6-6-6---8---|-10---10-------|-8--8--8--8--8----10--|

e|--6---6-------|-6---6-6-6---8---|-10---10-10-10---13--|-8--------------|
B|--8---8-------|-8---8-8-8---10--|-11---11-11-11---15--|-10-------------|
G|--8---8-------|-8---8-8-8---10--|-12---12-12-12---15--|-10-------------|
D|--8---8-------|-8---8-8-8---10--|-12---12-12-12---15--|-10-------------|
A|--6---6-------|-6---6-6-6---8---|-10---10-10-10---13--|-8--------------|
E|--6---6-------|-6---6-6-6---8---|-10---10-10-10---13--|-8--------------|

e|--6---6-6-6---6/8---3---3-------|-10---10-10-10---10\8--|-8----8--8--8--8--10-|
B|--8---8-8-8---8/10--4---4-------|-11---11-11-11---11\10-|-10---10-10-10-10-11-|
G|--8---8-8-8---8/10--5---5-------|-12---12-12-12---12\10-|-10---10-10-10-10-12-|
D|--8---8-8-8---8/10--5---5-------|-12---12-12-12---12\10-|-10---10-10-10-10-12-|
A|--6---6-6-6---6/8---3---3-------|-10---10-10-10---10\8--|-8----8--8--8--8--1--|
E|--6---6-6-6---6/8---3---3-------|-10---10-10-10---10\8--|-8----8--8--8--8--10-|

e|--6---6-------|-6---6-6-6-6--8--|-10---10-10-10---13--|-8------------------|
B|--8---8-------|-8---8-8-8-8--10-|-11---11-11-11---15--|-10-----------------|
G|--8---8-------|-8---8-8-8-8--10-|-12---12-12-12---15--|-10-----------------|
D|--8---8-------|-8---8-8-8-8--10-|-12---12-12-12---15--|-10-----------------|
A|--6---6-------|-6---6-6-6-6--8--|-10---10-10-10---13--|-8------------------|
E|--6---6-------|-6---6-6-6-6--8--|-10---10-10-10---13--|-8---------8-10-8-6-|

e|---------------|----------------|--------------------|-------------------------|
B|---------------|----------------|--------------------|-------------------------|
G|--8-8-8----7\--|-5-5-5-5----7\--|-12-12-12-12----7\--|-------------------------|
D|--8-8-8--------|-5-5-5-5--------|-12-12-12-12--------|-10-10-10-10-------------|
A|--6-6-6--------|-3-3-3-3--------|-10-10-10-10--------|-10-10-10-10----8-10-8-6-|
E|--6-6-6--------|-3-3-3-3--------|-10-10-10-10--------|-8--8--8--8--------------|

e|---------------|----------------|--------------------------------------------|
B|---------------|----------------|--------------------------------------------|
G|--8-8-8----7\--|-5-5-5-5----7\--|-10/12--------------------------------------|
D|--8-8-8--------|-5-5-5-5--------|-10/12--------------------------------------|
A|--6-6-6--------|-3-3-3-3--------|-8-/10---8-8-8-8-8-8-8-8-8-8-8-8------------|
E|--6-6-6--------|-3-3-3-3--------|-8-/10---8-8-8-8-8-8-8-8-8-8-8-8--8-10-8-6--|
                                          PM-----------------------|

[Break] 
(Clean)
e|--6-------|-6-------|-8----10------|-8--------|-10--|
B|--8-------|-8-------|-10---11------|-10-------|-11--|
G|--8-------|-8-------|-10---12------|-10-------|-12--|
D|--8-------|-8-------|-10---12------|-10-------|-12--| 
A|--6-------|-6-------|-8----10------|-8--------|-10--|
E|--6-------|-6-------|-8----10------|-8--------|-10--|

e|--6-------|-6-------|-8----10------|-8--------|
B|--8-------|-8-------|-10---11------|-10-------|
G|--8-------|-8-------|-10---12------|-10-------|
D|--8-------|-8-------|-10---12------|-10-------|
A|--6-------|-6-------|-8----10------|-8--------|
E|--6-------|-6-------|-8----10------|-8--------|

[Chorus]
(Distortion)
e|--6---6-------|-6---6-6-6---8---|-10---10-------|-8--8--8--8--8----10--|
B|--8---8-------|-8---8-8-8---10--|-11---11-------|-10-10-10-10-10---11--|
G|--8---8-------|-8---8-8-8---10--|-12---12-------|-10-10-10-10-10---12--|
D|--8---8-------|-8---8-8-8---10--|-12---12-------|-10-10-10-10-10---12--|
A|--6---6-------|-6---6-6-6---8---|-10---10-------|-8--8--8--8--8----10--|
E|--6---6-------|-6---6-6-6---8---|-10---10-------|-8--8--8--8--8----10--|

e|--6---6-------|-6---6-6-6---8---|-10---10-10-10---13--|-8--------------|
B|--8---8-------|-8---8-8-8---10--|-11---11-11-11---15--|-10-------------|
G|--8---8-------|-8---8-8-8---10--|-12---12-12-12---15--|-10-------------|
D|--8---8-------|-8---8-8-8---10--|-12---12-12-12---15--|-10-------------|
A|--6---6-------|-6---6-6-6---8---|-10---10-10-10---13--|-8--------------|
E|--6---6-------|-6---6-6-6---8---|-10---10-10-10---13--|-8--------------|

e|--6---6-6-6---6/8---3---3-------|-10---10-10-10---10\8--|-8----8--8--8--8--10-|
B|--8---8-8-8---8/10--4---4-------|-11---11-11-11---11\10-|-10---10-10-10-10-11-|
G|--8---8-8-8---8/10--5---5-------|-12---12-12-12---12\10-|-10---10-10-10-10-12-|
D|--8---8-8-8---8/10--5---5-------|-12---12-12-12---12\10-|-10---10-10-10-10-12-|
A|--6---6-6-6---6/8---3---3-------|-10---10-10-10---10\8--|-8----8--8--8--8--1--|
E|--6---6-6-6---6/8---3---3-------|-10---10-10-10---10\8--|-8----8--8--8--8--10-|

e|--6---6-------|-6---6-6-6-6--8---|-10---10-10-10---10---|-13--------------|
B|--8---8-------|-8---8-8-8-8--10--|-11---11-11-11---11---|-15--------------|
G|--8---8-------|-8---8-8-8-8--10--|-12---12-12-12---12---|-15--------------|
D|--8---8-------|-8---8-8-8-8--10--|-12---12-12-12---12---|-15--------------|
A|--6---6-------|-6---6-6-6-6--8---|-10---10-10-10---10---|-13--------------|
E|--6---6-------|-6---6-6-6-6--8---|-10---10-10-10---10---|-13---(8-10-8-6)-|

[Outro] 
(Clean)
e|--6-------|-6-------|-8----10------|-8--------|
B|--8-------|-8-------|-10---11------|-10-------|
G|--8-------|-8-------|-10---12------|-10-------|
D|--8-------|-8-------|-10---12------|-10-------|
A|--6-------|-6-------|-8----10------|-8--------|
E|--6-------|-6-------|-8----10------|-8--------|


************************************

| (n)  Ghost note
| /    Slide up
| \    Slide down
| PM   Palm-mute


************************************

            
            
Suggest correction
Creating personal tab
Creating personal tab
You can edit any tab online and save it as your Personal.

You can edit, replace or remove any tab part or add personal notes – all changes will be seen only by you.

Personal tabs can be accessed anytime from any device, even offline.
Learn more »
Give kudos to tab author, rate the tab!
1 2 3 4 5
comments
print report bad tab
1 comment total.
0 reply
boobooparis 10 Apr 15, 2017 02:38 PM

Need chord progression for let down by palisades

guest
You may want to rate the tab now too:
select rating
Wanna post a correction for this tab? Suggest correction