Oops, an error
Loading. Please wait.

Best Of Friends Bass Tab

version 1
version 1

Whole song

4,906 views 1 this week
1 commentread comment
1 2 3 4 5
x 6
add to favorites
launch autoscroll
font size
0
reset
guitar tuner
Autoscroll
slow
fast
+/-
esc
set tempo
stop
Help us to improve Ultimate-Guitar.com Take our survey!
×
 Intro
    1 2 3 4 1 2 3 4 1 2 3 4 1 2 3 4 1 2 3 4 1 2 3 4 1 2 3 4 1 2 3 4
  G ----------------------------------------------------------------|
  D ----------------------------------------------------------------|
  A ------------------------------------3---------------3-----------|
  E --------------------------------5-3-------------5-3-------------|

    1 2 3 4 1 2 3 4 1 2 3 4 1 2 3 4
  G --------------------------------| x2
  D --------------------------------|
  A ----33333333333-----33333333333-|
  E 5-3-------------5-3-------------|

 Verse "I see you in the distance"
    1 2 3 4 1 2 3 4 1 2 3 4 1 2 3 4
  G --------------------------------|  x4
  D --------------------------------|
  A ----33333333333-----33333333333-|
  E 5-3-------------5-3-------------|

 Chorus "I wanna be your best friend"
    1 2 3 4 1 2 3 4 1 2 3 4 1 2 3 4
  G -----------------------------------|  x4
  D -----------------------------------|
  A ----------------33333333-----------|
  E 1111111111111111--------33333333---|

  Post Chorus
     1 2 3 4 1 2 3 4 1 2 3 4 1 2 3 4
  G --------------------------------|
  D --------------------------------|
  A 3-33-33-33--3-33-33-33----------|
  E --------------------------------|


    Intro

    Verse

    Chorus

    Post Chorus

    Verse

    Chorus

    Solo (continue playing Chorus)

    Chorus

    Solo (continue playing Chorus)
Suggest correction
comments
print report bad tab
1 comment total.
0 reply
wreckinbarr 156 Feb 20, 2013 09:48 AM

NICE ONE! COULD YOU DO A FEW MORE PV BASS TABS!!

guest
You may want to rate the tab now too:
select rating
Wanna post a correction for this tab? Suggest correction