Oops, an error
Loading. Please wait.

Best Of Friends Tab

version 1
version 1

Whole song

14,818 views 27 this week
no commentswrite comment
1 2 3 4 5
worth learning
x 7
add to favorites
launch autoscroll
font size
0
reset
how to read this tab
guitar tuner
Autoscroll
slow
fast
+/-
esc
set tempo
stop
Help us to improve Ultimate-Guitar.com Take our survey!
×
Author
hiya77 532
-------------------------------------------------------------------------------
                             Best Of Friends - Palma Violets
-------------------------------------------------------------------------------

Tuning: Drop Gb? 
Massively better guitarist now so got pretty much all of the details in.

Acoustic use open, Heavier sound substitute in power chords


(Emphasis These Notes in the Chord) Times 7
e|--3----------------------------3-3----------------------|
B|--5--------5---------5-----1-1-0-0----------------------|
G|--5--5----------5----------2-2-0-0----------------------|
D|--5-----5----------5-----5-2-2-0-0----------------------|
A|--3----------3---------3---0-0-2-2----------------------|
E|-------------------------------3-3----------------------|


Times 1
e|---------3-3--3------------------------------------------|
B|----1-1--0-0--5------------------------------------------|
G|----2-2--0-0--5------------------------------------------|
D|----2-2--0-0--5------------------------------------------|
A|----0-0--2-2--3------------------------------------------|
E|---------3-3---------------------------------------------|

Times 2
e|---------3333-3------------------------------------------|
B|---------0000-5------------------------------------------|
G|---------0000-5------------------------------------------|
D|---------0000-5------------------------------------------|
A|---------2222-3------------------------------------------|
E|---------3333--------------------------------------------|

Times 2
e|---------3-3--3------------------------------------------|
B|----1-1--0-0--5------------------------------------------|
G|----2-2--0-0--5------------------------------------------|
D|----2-2--0-0--5------------------------------------------|
A|----0-0--2-2--3------------------------------------------|
E|---------3-3---------------------------------------------|

Times 1
e|---------1010101010-3------------------------------------|
B|---------1212121212-5------------------------------------|
G|---------1212121212-5------------------------------------|
D|---------1212121212-5------------------------------------|
A|---------1010101010-3------------------------------------|
E|---------------------------------------------------------|


Times 1
e|---------3-3--3------------------------------------------|
B|----2-2--0-0--5------------------------------------------|
G|----2-2--0-0--5------------------------------------------|
D|----2-2--0-0--5------------------------------------------|
A|----0-0--2-2--3------------------------------------------|
E|---------3-3---------------------------------------------|


Times 1
e|---------3-3---------------------------------------------|
B|----1-1--0-0---------------------------------------------|
G|----2-2--0-0---------------------------------------------|
D|----2-2--0-0---------------------------------------------|
A|----0-0--2-2---------------------------------------------|
E|---------3-3---------------------------------------------|

------------------------------------------------------------


Chorus Times 4

e|--1111111111111111----------33333333---------------------|
B|--1111111111111111-11111111-00000000---------------------|
G|--2222222222222222-00000000-00000000---------------------|
D|--3333333333333333-22222222-00000000---------------------|
A|-------------------33333333-22222222---------------------|
E|----------------------------33333333---------------------|


Fill 
e|-3-3----------3-3----------------------------------------|
B|-5-5----------5-5----------------------------------------|
G|-5-5----------5-5----------------------------------------|
D|-5-5-0-2-3-2--5-5-3-2-0-2--------------------------------|
A|-3-3----------3-3----------------------------------------|
E|---------------------------------------------------------|

------------------------------------------------------------

Times 5
e|---------3-3--3------------------------------------------|
B|----2-2--0-0--5------------------------------------------|
G|----2-2--0-0--5------------------------------------------|
D|----2-2--0-0--5------------------------------------------|
A|----0-0--2-2--3------------------------------------------|
E|---------3-3---------------------------------------------|

Times 1
e|---------1010101010-3------------------------------------|
B|---------1212121212-5------------------------------------|
G|---------1212121212-5------------------------------------|
D|---------1212121212-5------------------------------------|
A|---------1010101010-3------------------------------------|
E|---------------------------------------------------------|


Times 3
e|---------3-3--3------------------------------------------|
B|----1-1--0-0--5------------------------------------------|
G|----2-2--0-0--5------------------------------------------|
D|----2-2--0-0--5------------------------------------------|
A|----0-0--2-2--3------------------------------------------|
E|---------3-3---------------------------------------------|


Times 1
e|---------3-3---------------------------------------------|
B|----1-1--0-0---------------------------------------------|
G|----2-2--0-0---------------------------------------------|
D|----2-2--0-0---------------------------------------------|
A|----0-0--2-2---------------------------------------------|
E|---------3-3---------------------------------------------|

------------------------------------------------------------

Chorus Times 4

e|--1111111111111111----------33333333---------------------|
B|--1111111111111111-11111111-00000000---------------------|
G|--2222222222222222-00000000-00000000---------------------|
D|--3333333333333333-22222222-00000000---------------------|
A|-------------------33333333-22222222---------------------|
E|----------------------------33333333---------------------|



e|--5-5-5-5-3-----5-5-3------------------------------------|
B|------------5-3--------5-3-5-5-5-5-5-5-5-6-5-1-----------|
G|---------------------------------------------------------|
D|---------------------------------------------------------|
A|---------------------------------------------------------|
E|---------------------------------------------------------|

e|-----------------2-2-2-2-3-3-3-3-5-5-5-7-7-7-8----------|
B|-3-3-3-3-1-1-1-1-4-4-4-4-5-5-5-5-7-7-7-9-9-9-10---------|
G|-4-4-4-4-2-2-2-2-4-4-4-4-5-5-5-5-7-7-7-9-9-9-10---------|
D|-5-5-5-5-2-2-2-2-4-4-4-4-5-5-5-5-7-7-7-9-9-9-10---------|
A|-5-5-5-5-0-0-0 0-2-2-2-2-3-3-3-3-5-5-5-7-7-7-8----------|
E|-3-3-3-3------------------------------------------------|

Chorus Times 4

e|--1111111111111111----------33333333---------------------|
B|--1111111111111111-11111111-00000000---------------------|
G|--2222222222222222-00000000-00000000---------------------|
D|--3333333333333333-22222222-00000000---------------------|
A|-------------------33333333-22222222---------------------|
E|----------------------------33333333---------------------|

------------------------------------------------------------



e|-3-3-5-5-7-7-8-8-10-10-12-12-1313-13-12-10---------------|


                                               Rit.
e|-----------------2-2-2-2-3-3-3-3-5-5-5-7-7-7-8-8-8-8--10-10-10-10|
B|-3-3-3-3-1-1-1-1-4-4-4-4-5-5-5-5-7-7-7-9-9-9-10101010-12-12-12-12|
G|-4-4-4-4-2-2-2-2-4-4-4-4-5-5-5-5-7-7-7-9-9-9-10101010-12-12-12-12|
D|-5-5-5-5-2-2-2-2-4-4-4-4-5-5-5-5-7-7-7-9-9-9-10101010-12-12-12-12|
A|-5-5-5-5-0-0-0 0-2-2-2-2-3-3-3-3-5-5-5-7-7-7-8-8-8-8--10-10-10-10|
E|-3-3-3-3---------------------------------------------------------|


e|--3~---------------------------------------------------|
B|--5~---------------------------------------------------|
G|--5~---------------------------------------------------|
D|--5~---------------------------------------------------|
A|--3~---------------------------------------------------|
E|-------------------------------------------------------|





www.palmaviolets.co.uk
Suggest correction
What's this?
You can suggest a correction to this tab. Community and Mods will review your correction and vote to approve or reject it.
comments
print report bad tab
guest
You may want to rate the tab now too:
select rating
Please do not post tabs as comments. Select "correction" instead!