Oops, an error
Loading. Please wait.

Chicken Dippers tab

2,765 views 3 this week
3 commentsread comments
1 2 3 4 5
x 4
add to favorites
×
Save as Personal and add changes to this tab that will be seen only by you. Learn more ›
×
You can save this tab as Personal to edit and correct it or add notes. All changes will be seen only by you. Learn more »
launch autoscroll
font size
0
reset
how to read this tab
guitar tuner
edit
Autoscroll
slow
fast
+/-
esc
set tempo
stop
Author
Song:Chicken Dippers
Album:180(2013)
Guitarist:Sam Fryer


Keyboard and Drum intro

-------------------|Times 2
-------------------|
-------------------|
-------------------|
---7--7-9-7-9-2-5--|
-------------------|

Em            D
Take me down,Take me go
Em            D
And im gone, away again
Em            D
Your hair your hair is on fire
Em            D
Your hair is on fire
        G                             D
And you make me feel like im the only one
Woo!

----------------10b-------------------------------------------|
-12b-12b-12b-12b----12b-10b-----------------------------------|
---------------------------9b-11b-11b-11b-11b-11b-11b-9b------|
--------------------------------------------------------------|
--------------------------------------------------------------|
--------------------------------------------------------------|
        G                             D
And you make me feel like im the only one

-------------------|Times 2
-------------------|
-------------------|
-------------------|
---7--7-9-7-9-2-5--|
-------------------|
Em                    D
Im running Im running around
Em                    D
Im running Im running around
Em                    D
Your hair your hair is on fire
Em                    D
your hair is a stone red gage

        G                             D
And you make me feel like im the only one
Woo!

----------------10b-------------------------------------------|
-12b-12b-12b-12b----12b-10b-----------------------------------|
---------------------------9b-11b-11b-11b-11b-11b-11b-9b------|
--------------------------------------------------------------|
--------------------------------------------------------------|
--------------------------------------------------------------|
        G                             D
And you make me feel like im the only one
Woo!

----------------10b-------------------------------------------|
-12b-12b-12b-12b----12b-10b-----------------------------------|
---------------------------9b-11b-11b-11b-11b-11b-11b-9b------|
--------------------------------------------------------------|
--------------------------------------------------------------|
--------------------------------------------------------------|

        G                             D
And you make me feel like im the only one im the only one

--------------------|
--------------------|
--------------------|
-----2-4-2----------|
-2-5-------5-2------|
--------------------|
        G                             D               (Em)
And you make me feel like im the only one im the only

            
            
Suggest correction
Creating personal tab
Creating personal tab
You can edit any tab online and save it as your Personal.

You can edit, replace or remove any tab part or add personal notes – all changes will be seen only by you.

Personal tabs can be accessed anytime from any device, even offline.
Learn more »
comments
print report bad tab
3 comments total.
-1 reply
dan230993 2,786 Apr 21, 2013 09:38 AM

-------------------|Times 2
-------------------|
-------------------|
-------------------|
---7--7-9-7-9-3-5--|
-------------------|
Should be

-------------------|Times 2
-------------------|
-------------------|
-------------------|
---7--7-9-7-9-2-5--|
-------------------|

and the E should be Em

guest
You may want to rate the tab now too:
select rating
Wanna post a correction for this tab? Suggest correction