Oops, an error
Loading. Please wait.

La Misma Suerte chords

11 views 3 this week
no commentswrite comment
1 2 3 4 5
3 more votes to show rating
add to favorites
×
Save as Personal and add changes to this tab that will be seen only by you. Learn more ›
×
You can save this tab as Personal to edit and correct it or add notes. All changes will be seen only by you. Learn more »
launch autoscroll
font size
0
reset
transpose
0
reset
simplify chords
display chords
guitar tuner
edit
Autoscroll
slow
fast
+/-
esc
set tempo
stop
Strumming
There is no strumming pattern for this song yet. and get +5 IQ
INTRO

c1----------------------------------------------
c2----------------------------------------------
c3--------------------6--9--9--6----6-----------
c4-------------6--9----------------9----9-------
c5------7--9------------------------------------
c6--0-------------------------------------------

-----------------------------------------7------
------------------------9--9--7------9--------9-
-----------------6--------------9---------------
----------6--9----------------------------------
----7--9----------------------------------------
-0----------------------------------------------


G#m                       B               F#m
Yo se muy bien pelearlo no tiene sentido
     A7                                   E
si toda esta emocion pega la vuelta.

INTRO

Y cuando tu palabra hace sangrar mi oido
le pido a Maria una respuesta.


INTRO

F#m         C#m
Fe de madre, madre abre.
A                        B
Su alma a el amor.

INTRO

Todas las mañanas espero tu llamado
como un hielo que se prende fuego.

INTRO

Un poco alucino, un poco estoy parado
pero ese anillo no es un juego.

Dulce madre, dame el aire
para respirar.

             E       A
Y si vienes por aqui
                      E
estaremos frente a frente
             E         A
y tus manos tomare
                    E
al besarnos de repente.

y pasado y porvenir
se reducen al presente
sufrir o ser feliz
buscaras la misma suerte

olala la vida es un laberinto
y siempre se sale por arriba
o sino tirarse desde un piso quinto
finalmente sangre en las heridas

cinco cuatro tres dos uno cero

y si vienes por aqui
estaremos frente a frente
y tus manos tomare
al besarnos de repente

y pasado y porvenir
se reducen al presente
y sufrir o ser feliz
nos dará la misma suerte

y si vienes por aqui...
Suggest correction
Creating personal tab
Creating personal tab
You can edit any tab online and save it as your Personal.

You can edit, replace or remove any tab part or add personal notes – all changes will be seen only by you.

Personal tabs can be accessed anytime from any device, even offline.
Learn more »
Give kudos to tab author, rate the tab!
1 2 3 4 5
comments
print report bad tab
guest
Wanna post a correction for this tab? Suggest correction