Oops, an error
Loading. Please wait.

Picking Up The Pieces Tab

1,214 views 1 this week
no commentswrite comment
1 2 3 4 5
please rate
add to favorites
launch autoscroll
font size
0
reset
how to read this tab
guitar tuner
Autoscroll
slow
fast
+/-
esc
set tempo
stop
Help us to improve Ultimate-Guitar.com Take our survey!
×
Author
Difficulty
Tuning
intermediate
D G D G B D
Tabbed & Arranged by: Josh Daley

Tuning: D G D G B D (Open G)



Verse:

------------------------------------------------------------------|
------------------------------------------------------------------|
----0---0---0---0---0---0---0---0---0---0---0---0---0---0---0---0-|
------------------------------------------------------------------|
------------------------------------------------------------------|
--5---5---5---5---5---5---5---5---4---4---4---4---4---4---4---4---|

----------------------------------------------------------------------------|
----------------------------------------------------------------------------|
----0---0---0---0---0---0---0---0------0----0----0----0----0----0----0----0-|
----------------------------------------------------------------------------|
----------------------------------------------------------------------------|
--2---2---2---2---2---2---2---2---2/10---10---10---10---10---10---10---10---|



Pre-chorus:

--0----0---0--0----0--0---|
--3----3---3--0----0--0---|
--0----0---2--0----0--2---|
--0----0---0--5----4--5---|
--x----x---0--4----4--4---|
--5----4---0--2-----------|



Chorus:

--0----0---0--0----0--0--0-|
--3----3---3--0----8--0--0-|
--0----0---2--0----0--0--0-|
--0----0---0--5---10--0-12-|
--x----x---0--4----0--0--x-|
--5----4---0--2---10--9--9-|

--0----0---0--0----0---0----|
--3----3---3--0----8---3----|
--0----0---2--0----0---0----|
--0----0---0--5---10---0----|
--x----x---0--4----0---x----|
--5----4---0--2---10---5----|



Bridge:

---------------------------|
---------------------------|
---------------------------|
--2--4--5----10-10--10-10--|
--x--x--x-----x---x--x--x--|
--2--4--5----10-10--10-10--|

----------------------------------------------|
----------------------------------------------|
----------------------------------------------|
--2-2-2-2-4-4-4-4-5-5-5-5-5-5-5-5-10----12----| ~ Back to chorus ~
--x-x-x-x-x-x-x-x-x-x-x-x-x-x-x-x--x-----x----|
--2-2-2-2-4-4-4-4-5-5-5-5-5-5-5-5-10----12----|



Outro:

--0----0---0--0----0--0--0-|
--3----3---3--0----8--0--0-|
--0----0---2--0----0--0--0-|
--0----0---0--5---10--0-12-|
--x----x---0--4----0--0--x-|
--5----4---0--2---10--9--9-|

--0----0---0--0----0---0----|
--3----3---3--0----8---3----|
--0----0---2--0----0---0----|
--0----0---0--5---10---0----|
--x----x---0--4----0---x----|
--5----4---0--2---10---5----|
Suggest correction
Give kudos to tab author, rate the tab!
1 2 3 4 5
comments
print report bad tab
guest
You may want to rate the tab now too:
select rating
Please do not post tabs as comments. Select "correction" instead!