Oops, an error
Loading. Please wait.

Neither High Nor Dry bass

216 views 1 this week
no commentswrite comment
1 2 3 4 5
3 more votes to show rating
add to favorites
×
Save as Personal and add changes to this tab that will be seen only by you. Learn more ›
×
You can save this tab as Personal to edit and correct it or add notes. All changes will be seen only by you. Learn more »
launch autoscroll
font size
0
reset
guitar tuner
edit
Autoscroll
slow
fast
+/-
esc
set tempo
stop
Pama International
Neither High nor Dry

Intro
G|----------------------------------|
D|-3~~----3~~----3-32---------------|
A|----3------3-------3--------3---3-|
E|--------------------53--3-5---5---|

Verse                         x2| Then play this and
G|------------------------------|-----------|Repeat
D|-----------------------332----|-----------|Whole
A|-3-3-331------331--5-5----323-|-----3---3-|Thing
E|--------31-1-----3------------|-3-5---5---|

Bridge Pt.1
G|------------------------------------------------------------------|
D|-333/5-3--333/5-3----------5-3----------333/5-3--333/5-3--555/7-5-|
A|-------------------333/5-3-----5--3-1-----------------------------|
E|--------------------------------------3---------------------------|

Bridge Pt.2
G|-----------|-----------|-----------|------------|
D|-----------|-----NO----|----BASS---|-----332----|
A|-----3---3-|-----------|-----------|-5-5----323-|
E|-3-5---5---|-----------|-----------|------------|

G|------------------------------|
D|-----------------------332----|
A|-3-3-331------331--5-5----323-|
E|--------31-1-----3------------|

G|----------------------------------|
D|-3~~----3~~----3-32---------------|
A|----3------3-------3--------3---3-|
E|--------------------53--3-5---5---|

Verse
G|--------------------------|
D|--------------------332---|
A|-3-331------31--5-5----23-|
E|------31-1----3-----------|

End
G|-----------------------|
D|----------------332----|
A|-----3---3--5-5----323-|
E|-3-5---5---------------|

http://www.pamainternational.co.uk

Add my Myspace:
Myspace.com/Jake_bums_sheep_x
I'll add you fer shure and we can bum over the interweb lolz
Suggest correction
Creating personal tab
Creating personal tab
You can edit any tab online and save it as your Personal.

You can edit, replace or remove any tab part or add personal notes – all changes will be seen only by you.

Personal tabs can be accessed anytime from any device, even offline.
Learn more »
Give kudos to tab author, rate the tab!
1 2 3 4 5
comments
print report bad tab
guest
You may want to rate the tab now too:
select rating
Wanna post a correction for this tab? Suggest correction