Oops, an error
Loading. Please wait.

No, No, No tab

version 2
version 2

Whole song

by Pambo
6 views 1 this week
no commentswrite comment
1 2 3 4 5
3 more votes to show rating
add to favorites
×
Save as Personal and add changes to this tab that will be seen only by you. Learn more ›
×
You can save this tab as Personal to edit and correct it or add notes. All changes will be seen only by you. Learn more »
launch autoscroll
font size
0
reset
how to read this tab
guitar tuner
edit
Autoscroll
slow
fast
+/-
esc
set tempo
stop
 intro
hola mucho gusto aquí les aporto algo el itro lo saque a oído
 la verdad espero que les guste, para mí suena igual después me diran xD
saludos les mando mauricio.
weno... la letra "h" la puse para que arrastren el sonido hasta
el numero de traste que indica...
x ejm... "7h5" tocas la cuerda 2  en el traste 7 y la arrastras
hasta el traste 5 rápidamente... si escuchan la canción se guiaran..=)

e-------------------------------------------
b--9/10-10-10-10-9-7-7h5-2--2-2-2-2-0-------
g-------------------------------------2---6-
D---------------------------------------4---
A-------------------------------------------
E-------------------------------------------

e------------------------------------
b------------------------------------
g---6-6-6-9h11-9-6-4-4h6-4-2h4-4h2---
D------------------------------------
A------------------------------------
E------------------------------------

D*: 000235 (suena bien con re normal tambien,
pero con este suena mucho mejor)


D*                 A
No no no quiero saber

                  F#m                      E
todo lo que hice ayer creo que perdi la cabeza
D*                      A                        F#m
eso de beber tanto alcohol me hace perder direccion
                    E
a veces uno ya no piensa


D*                 A
No no no quiero saber
                 F#m                           E
todo lo que dije ayer creo que se me solto la lengua
D*                      A                       F#m
eso de beber tanto alcohol cambia toda persepcion
                  E
disminuye mi conciencia


Em           A          Em            A
voy dando vueltas en mi cama sin dormir
      Em         A         F#m           E
ay estoy confundiendo la velada, me excedi


D*                A
no no no quiero saber
                   F#m                         E
todo lo que hice ayer creo que se me paso la fiesta
D*                      A                F#m
eso de beber tanto alcohol elimina mi razon
                  E
ya no mido por intensa


e--------------------------------------------
b--9/10-10-10-10-9-7-7h5-2--2-2-2-2-0--------
g-------------------------------------2---6--
D---------------------------------------4----
A--------------------------------------------
E--------------------------------------------

e-----------------------------------
b-----------------------------------
g---6-6-6-9h11-9-6-4-4h6-4-2h4-4h2--
D-----------------------------------
A-----------------------------------
E-----------------------------------

Em           A          Em            A
voy dando vueltas en mi cama sin dormir
      Em         A         F#m           E
ay estoy confundiendo la velada, me excedi


(palmas xD)
tututurututruru...

no quiero saber se me paso la fiesta


(un solo rasgueo)
D*              A         F#m          E
no no tanto alcohol mi razon pero cuanta inconciencia


(aca te alocas de nuevo xD)
D*                 A
no no no quiero saber
                   F#m                     E
todo lo que hice ayer creo que perdi la cabeza
D*                     A                         F#m
eso de beber tanto alcohol me hace perder direccion
                    E
a veces uno ya no piensa

uhuhuuhuhuhuhuhuuhu....

            
            
Suggest correction
Creating personal tab
Creating personal tab
You can edit any tab online and save it as your Personal.

You can edit, replace or remove any tab part or add personal notes – all changes will be seen only by you.

Personal tabs can be accessed anytime from any device, even offline.
Learn more »
Give kudos to tab author, rate the tab!
1 2 3 4 5
comments
print report bad tab
guest
Wanna post a correction for this tab? Suggest correction