Oops, an error
Loading. Please wait.

Bla, Bla, Bla tab

55 views 3 this week
no commentswrite comment
1 2 3 4 5
3 more votes to show rating
add to favorites
×
Save as Personal and add changes to this tab that will be seen only by you. Learn more ›
×
You can save this tab as Personal to edit and correct it or add notes. All changes will be seen only by you. Learn more »
launch autoscroll
font size
0
reset
how to read this tab
guitar tuner
edit
Autoscroll
slow
fast
+/-
esc
set tempo
stop
Intro Riff

E|-------------------------------------------------------4/3------------------|
B|-----------------------------------------------------------4-3--1-----------|
G|---0----3/2--1-0------0---3-2-1-------0----3/2--1-0----------------1--0-----|
D|--1------------------1---------------1--------------------------------------|
A|-3------------------3---------------3---------------------------------------|
E|----------------------------------------------------------------------------|

E|-------------------------------------------------------4/3------------------|
B|-----------------------------------------------------------4-3--1--3---0----|
G|---0----3/2--1-0------0---3-2-1-------0----3/2--1-0-------------------------|
D|--1------------------1---------------1--------------------------------------|
A|-3------------------3---------------3---------------------------------------|
E|----------------------------------------------------------------------------|


Cm
Con la sorpresa del allanamiento
con la violencia de la requisa
tenés estudiada la forma, decime si miento,
para tirar mierda con una sonrisa.


G#                  Bb                 Cm
No quiero enroscarme y seguirte el juego
no busco perder mi tiempo, hoy llevo prisa
avanzo seguro y voy bien despierto
                   G#                 Bb
aunque quieras dormirme gastando saliva.


          G#                Bb
Bla, bla, blá...blablá, blablá,
             Cm
y no decís nada,
va girando la veleta con la charla
Bla, bla, blá...blablá, blablá,
y el partido ya arrancó mal parido
faltan pelotas y sobran palabras.


Riff

Cm
Caés bien parado aunque vas por el suelo
escupiendo al viento tu prosa maldita
un proteccionista cazando en secreto
           G                        Bb
un protagonista entre las bambalinas.


          G#                Bb
Bla, bla, blá...blablá, blablá,
             Cm
y no decís nada,
va girando la veleta con la charla
Bla, bla, blá...blablá, blablá,
y el partido ya arrancó mal parido
faltan pelotas y sobran palabras.


Cm
Menos charla, mirate al espejo
vivís predicando qué hacer, de brazos cruzados
    G#              Bb            Cm
de qué sirve que te diga lo que pienso está tan claro
               G#                               Bb
que si no la ves... voy a pensar que te gusta andar ciego.
Bla, bla, blá... blablá, blablá

            
            
Suggest correction
Creating personal tab
Creating personal tab
You can edit any tab online and save it as your Personal.

You can edit, replace or remove any tab part or add personal notes – all changes will be seen only by you.

Personal tabs can be accessed anytime from any device, even offline.
Learn more »
Give kudos to tab author, rate the tab!
1 2 3 4 5
comments
print report bad tab
guest
Wanna post a correction for this tab? Suggest correction