Oops, an error
Loading. Please wait.

Arroz Con Leche Tab

6,573 views 12 this week
no commentswrite comment
1 2 3 4 5
please rate
add to favorites
launch autoscroll
font size
0
reset
how to read this tab
guitar tuner
Tab Pro tools
  • play this tab
  • loop segment
  • change instrument
  • show fretboard
  • metronome
Autoscroll
slow
fast
+/-
esc
set tempo
stop
Contributor
Eh vuelto con el primer disco de panda pa' todos ustedes .
Una vez mas quiero dedicarle este disco a mis amigos de la ETI,
pero esta vez se lo quiero dedicar especialmente a mi amiga Monica.

               Canciones:
                         1.EL ELIAS
                         2.TANTO
                         3.MIERCOLES
                         4.EN EL VATICANO
                         5.SUNNY BLUE
                         6.BUEN DIA
                         7.SWEATER GEEK
                         8.SI SUPIERAS
                         9.EL GRAN MCGEE
                        10.MUÑECA
                        11.GRIPA Y MUNDIAL
                        12.TE INVITO A MI FIESTA

////////////////////////////////////////////////////////////////////////////
1.EL ELIAS

intro:
Grt 1
>---------------------------------------------------------|
>---------------------------------------------------------|
>--(7-7)--------7-7-7-7-----------------------------------|
>--(5-5)--------5-5-5-5---7-7-7-7-----5-5-5-5-------------|
>--(5-5)--------5-5-5-5---7-7-7-7-----5-5-5-5-------------|
>-------------------------5-5-5-5-----7-7-7-7-------------|

los acordes en paréntesis solo se tocan la primera vez

Gtr 2
>-----------------------------------------------------------------|
>--------6—8--7—6--5-5-----------6--8--7--8--9-9-----(x4)---------|
>--5-5-5-------------------5-5-5----------------------------------|
>-----------------------------------------------------------------|
>-----------------------------------------------------------------|
>-----------------------------------------------------------------|

siempre q tengas mal
>------------------------------------------------------------------------|
>------------------------------------------------------------------------|
>------------------------------------------------------------------------|
>--3-x-x------5-x-x----7-x-x----9----------------9-x-x---9-x-x-----------|
>--3-x-x------5-x-x----7-x-x----9------(x3)------9-x-x—--9-x-x---(x3)----|
>--1-x-x------3-x-x----5-x-x----7----------------7-x-x---7-x-x-----------|

paramos en la gas…
>-----------------------------------------------------|
>-----------------------------------------------------|
>-----------------------------------------------------|
>---3-3----5-5----9-9---------------------------------|
>---3-3----5-5----9-9----(x4)-------------------------|
>---1-1—---3-3----7-7---------------------------------|

tu siempre estas...   (precoro)
>------------------------------------------------------|
>------------------------------------------------------|
>-------------------------7-7---9-9--------------------|
>---7-7-7-7----5-5-5-5----7-7---9-9----(x2)------------|
>---7-7-7-7----5-5-5-5----5-5---7-7--------------------|
>---5-5-5-5----3-3-3-3---------------------------------|

y fíjate que yo no quiero nada que tu me des..... (coro)
>---------------------------------------------------------|
>---------------------------------------------------------|
>--7-7-7-7------------------------------------------------|
>--7-7-7-7------7-7-7-7----5-5-5-5—-7-7-7-7---------------|
>--5-5-5-5------7-7-7-7----5-5-5-5—-7-7-7-7---------------|
>---------------5-5-5-5----3-3-3-3—-5-5-5-5---------------|

disculpe señorita...
>--------------------------------------------------------|
>--------------------------------------------------------|
>--------------------------------------------------------|
>--3-x-x---5-x-x----7-x-x---9------------9-9—--9-9-------|
>--3-x-x---5-x-x----7-x-x---9----(x3)----9-9—--9-9-------|(x3)
>--1-x-x---3-x-x----5-x-x---7------------7-7---7-7-------|

coro
intro
precoro
coro

que eras tu nunca paras……(ritmo ska)
>-----------------------------------------------------|
>-----------------------------------------------------|
>--7-7-7-7----9-9-9-9---------------------------------|
>--7-7-7-7----9-9-9-9------(x3)-----------------------|
>--5-5-5-5----7-7-7-7---------------------------------|
>-----------------------------------------------------|
sigue con los mismo  pero mas rapido

////////////////////////////////////////////////////////////////////////////
2.TANTO
////////

 esta tambien esta 100% bn, esta muy facil
ahi les va:

Segunda guitarra:

eb|-------------------------------------|
Bb|-------------------------------------|
Gb|-------5555--------------------------|
Db|-(3-5)-5555-3333-7777-5555-----------| x2 (lo q esta
Ab|-(3-5)-3333-3333-7777-5555-----------|     entre parentesis
Eb|-(1-3)------1111-5555-3333-----------|     es solo 1 ves)


Primera guitarra:

Gb|----12-10-9----------9-10-9-------------|
Db|-10---------12-10-12--------12-10-12----|

Gb|----12-10-9----------9-10-9----------9-------|
Db|-10---------12-10-12--------12-10-12---12-10-|

Verso:

“Yo hice una broma…”
eb|--------------------------------|
Bb|--------------------------------|
Gb|-5-5-5-5-5-5--------------------|
Db|-5---5---5---3-5----------------|x4
Ab|-3---3---3---3-5----------------|
Eb|-------------1-3----------------|

“Después de todo esto yo…”
eb|------------------------------|
Bb|------------------------------|
Gb|-5555-------------------------|
Db|-5555-3333-7777-5555----------|x2
Ab|-3333-3333-7777-5555----------|
Eb|------1111-5555-3333----------|

“y esta ves bromeare…”
eb|--------------------------------|
Bb|--------------------------------|
Gb|------------5-5-5-5-5-5-5-5-----|
Db|-3333-5555--5---5---5---5-------|x2
Ab|-3333-5555--3---3---3---3-------|
Eb|-1111-3333----------------------|

Coro:

“Ohuhoh ohuhoh…”
eb|------------------------------------|
Bb|------------------------------------|
Gb|---------7-7-7-7-5-5-5-5-7-7-7-7----|
Db|-5-5-5-5-7-7-7-7-5-5-5-5-7-7-7-7----|x2
Ab|-5-5-5-5-5-5-5-5-3-3-3-3-5-5-5-5----|
Eb|-3-3-3-3----------------------------|
Se apagan las cuerdas con la mano izquierda para q no c quede sonando.

Final dl coro:
Db|-55--|
Ab|-55--|
Eb|-33--|

Se repite intro:

Se repite verso:

Se repite coro x2:

Puente:

segunda guitarra:

eb|----------------------|
Bb|----------------------|
Gb|-55-------------------|
Db|-55-33-77-55----------|x2
Ab|-33-33-77-55----------|
Eb|----11-55-33----------|

Segunda guitarra:

Gb|----12-10-9----------9-10-9-------------|
Db|-10---------12-10-12--------12-10-12----|

Gb|----12-10-9----------9-10-9----------9-------|
Db|-10---------12-10-12--------12-10-12---12-10-|

“Y esta ves bromeare…”
eb|--------------------------------|
Bb|--------------------------------|
Gb|------------5-5-5-5-5-5-5-5-----|
Db|-3333-5555--5---5---5---5-------|x2
Ab|-3333-5555--3---3---3---3-------|
Eb|-1111-3333----------------------|

Ultimo coro:

“Ohuhoh ohuhoh…”
eb|------------------------------------|
Bb|------------------------------------|
Gb|---------7-7-7-7-5-5-5-5-7-7-7-7----|
Db|-5-5-5-5-7-7-7-7-5-5-5-5-7-7-7-7----|
Ab|-5-5-5-5-5-5-5-5-3-3-3-3-5-5-5-5----|
Eb|-3-3-3-3----------------------------|

“Ohuhoh ohuhoh…” (sube un tono)
eb|------------------------------------|
Bb|------------------------------------|
Gb|---------9-9-9-9-7-7-7-7-9-9-9-9----|
Db|-7-7-7-7-9-9-9-9-7-7-7-7-9-9-9-9----|
Ab|-7-7-7-7-7-7-7-7-5-5-5-5-7-7-7-7----|
Eb|-5-5-5-5----------------------------|

Final:

eb|-----------------------|
Bb|-----------------------|
Gb|---------2-4-----------|
Db|-7-6-4-2-2-4-2---------|
Ab|-7-6-4-2-0-2-2---------|
Eb|-5-4-2-0-----0---------|

////////////////////////////////////////////////////////////////////////////
3.MIERCOLES
////////////////

Verso x4:(Ritmo SKA)
Cuentas lo que nos paso.....
--------------------------------------------------|
--------------------------------------------------|
---6-6-6-6--8-8-8-8-------------------------------|
---6-6-6-6--8-8-8-8-------------------------------|
---4-4-4-4--6-6-6-6-------------------------------|
--------------------------------------------------|

Post coro: ...Tratamos de arreglarlo pero todo fracaso.
(Y sigue esto)
--------------------------------------------------|
--------------------------------------------------|
---6-6-6-6-5-5-5-5--3-3-5-3-----------------------|
---4-4-4-4-3-3-3-3--3-3-5-3-----------------------|
---4-4-4-4-3-3-3-3--1-1-5-1-----------------------|
--------------------------------------------------|

Coro:(Abre los ojos mira al cielo)
--------------------------------------------------|
--------------------------------------------------|
--6-6-6-6-----------------------------------------|
--6-6-6-6--6-6-6-6--8-8-8-8--6-6-6-6--------------|
--4-4-4-4--6-6-6-6--8-8-8-8--6-6-6-6--------------|
-----------4-4-4-4--6-6-6-6--4-4-4-4--------------|

--------------------------------------------------|
--------------------------------------------------|
--6-6-6-6-----------------------------------------|
--6-6-6-6--6-6-6-6--8-8-8-8--x-x6-x-x6------------|
--4-4-4-4--6-6-6-6--8-8-8-8--x-x6-x-x6------------|
-----------4-4-4-4--6-6-6-6--x-x4-x-x4------------|

Al final del coro:(X 4)
--------------------------------------------------|
--------------------------------------------------|
--------------------------------------------------|
--4-4-x-x-x-x-4-4-x-x-x-x-6/7\6-------------------|
--4-4-x-x-x-x-4-4-x-x-x-x-6/7\6-------------------|
--2-2-x-x-x-x-2-2-x-x-x-x-4/5\4-------------------|

--------------------------------------------------|
--------------------------------------------------|
--------------------------------------------------|
--4-4-x-x-x-x-4-4-x-x-x-x-2-2---------------------|
--4-4-x-x-x-x-4-4-x-x-x-x-2-2---------------------|
--2-2-x-x-x-x-2-2-x-x-x-x-0-0---------------------|

Post Coro x4:(es miercoles, ponte feliz)
--------------------------------------------------|
--------------------------------------------------|
---6-6-6-6-5-5-5-5--3-3-5-3-----------------------|
---4-4-4-4-3-3-3-3--3-3-5-3-----------------------|
---4-4-4-4-3-3-3-3--1-1-5-1-----------------------|
--------------------------------------------------|
La parte de la guitarra acustica:
--------------------------------------------------|
--------------------------------------------------|
--6-----------------------------------------------|
--6---6---8---6-----------------------------------|
--4---6---8---6-----------------------------------|
------4---6---4-----------------------------------|

Abre tus ojos, mira al cielo.
--------------------------------------------------|
--------------------------------------------------|
--6-6-6-6-----------------------------------------|
--6-6-6-6--6-6-6-6--8-8-8-8--6-6-6-6--------------|
--4-4-4-4--6-6-6-6--8-8-8-8--6-6-6-6--------------|
-----------4-4-4-4--6-6-6-6--4-4-4-4--------------|

Final:
--------------------------------------------------|
--------------------------------------------------|
--------------------------------------------------|
--4-4-x-x-x-x-4-4-x-x-x-x-6/7\6-------------------|
--4-4-x-x-x-x-4-4-x-x-x-x-6/7\6-------------------|
--2-2-x-x-x-x-2-2-x-x-x-x-4/5\4-------------------|

--------------------------------------------------|
--------------------------------------------------|
--------------------------------------------------|
--4-4-x-x-x-x-4-4---------------------------------|
--4-4-x-x-x-x-4-4---------------------------------|
--2-2-x-x-x-x-2-2---------------------------------|

////////////////////////////////////////////////////////////////////////////
4.EN EL VATICANO
/////////////////////

.-=INTRO=-.
(primeras dos veces limpio y sin riff, las siguientes veces con distorcion y riff)

e--------------------------------------------------||
B--------------------------------------------------||
G---6-6-6-6-6-6-6-6--------------------------------||
D---6-6-6-6-6-6-6-6-----4-4-4-4-----6-6-6-6--------||
A---4-4-4-4-4-4-4-4-----4-4-4-4-----6-6-6-6--------||
E-----------------------2-2-2-2-----4-4-4-4--------||

(riff)
e--------------------------------------------||------|
B-------6-------6-----------6-------7-6-4-6--||------|
G-----6---6---6---6-------6---6--------------||--6~--|
D---6-------6-----------4--------------------||------|
A--------------------------------------------||------|
E--------------------------------------------||------|

.-=VERSO=-.

(Bajo)
la vi por vez primera....

(Guitarra entra)
vestia falda a cuadros...

Mismo acordes de intro con este riff. (dos veces)

e--------------------------------------------||------|
B-6b7-7-7-7-7-7--4------6b7-7-7-7-7-7--4--6--||------|
G-------------------6------------------------||--6~--|
D--------------------------------------------||------|
A--------------------------------------------||------|
E--------------------------------------------||------|

e----------------------------------------------------||
B----------------------------------------------------||
G--------------------------------------------------6~||
D-x-x-4-x-x-4-x-x-4-x-x-4-x-x-6-x-x-6-x-x-6-x-x-6--6~||
A-x-x-4-x-x-4-x-x-4-x-x-4-x-x-6-x-x-6-x-x-6-x-x-6--4~||
E-x-x-2-x-x-2-x-x-2-x-x-2-x-x-4-x-x-4-x-x-4-x-x-4----||

se repite verso

(bajo)
eramos solo...

(guitarra entra)
entonces me sorprendi...

en el vaticano...
e----------------------------------------------------||
B----------------------------------------------------||
G----------------------------------------------------||
D-x-x-4-x-x-4-x-x-4-x-x-4---6-6-6-6-6-6-6-6----------||
A-x-x-4-x-x-4-x-x-4-x-x-4---6-6-6-6-6-6-6-6----------||
E-x-x-2-x-x-2-x-x-2-x-x-2---4-4-4-4-4-4-4-4----------||

.-=CORO=-.

todavia veo...
e----------------------------------------------------||
B----------------------------------------------------||
G----6-6-6-6---5-5-5-5-------------------------------||
D----6-6-6-6---5-5-5-5---8-8-8-8---6-6-6-6-----------||
A----4-4-4-4---3-3-3-3---8-8-8-8---6-6-6-6-----------||
E------------------------6-6-6-6---4-4-4-4-----------||

hace tanto tiempo...
e----------------------------------------------------||
B----------------------------------------------------||
G----------------------------------------------------||
D-x-x-4-x-x-4-x-x-4-x-x-4-x-x-6-x-x-6-x-x-6-x-6------||
A-x-x-4-x-x-4-x-x-4-x-x-4-x-x-6-x-x-6-x-x-6-x-6------||
E-x-x-2-x-x-2-x-x-2-x-x-2-x-x-4-x-x-4-x-x-4-x-4------||

.-=PUENTE=-.

e--------------------------------------------------||
B--------------------------------------------------||
G---6-6-6-6-6-6-6-6--------------------------------||
D---6-6-6-6-6-6-6-6-----4-4-4-4-----6-6-6-6--------||
A---4-4-4-4-4-4-4-4-----4-4-4-4-----6-6-6-6--------||
E-----------------------2-2-2-2-----4-4-4-4--------||

(riff)
e--------------------------------------------||------|
B-------6-------6-----------6-------7-6-4-6--||------|
G-----6---6---6---6-------6---6--------------||--6~--|
D---6-------6-----------4--------------------||------|
A--------------------------------------------||------|
E--------------------------------------------||------|


.-=VERSO=-.

lo mismo de arriba

.-=CORO=-.

los mismos acordes

.-=OUTRO=-.

e--------------------------------------------------||
B--------------------------------------------------||
G---6-6-6-6-6-6-6-6--------------------------------||
D---6-6-6-6-6-6-6-6-----4-4-4-4-----6-6-6-6--------||
A---4-4-4-4-4-4-4-4-----4-4-4-4-----6-6-6-6--------||
E-----------------------2-2-2-2-----4-4-4-4--------||

(riff)
e--------------------------------------------||------|
B-------6-------6-----------6-------7-6-4-6--||------|
G-----6---6---6---6-------6---6--------------||--6~--|
D---6-------6-----------4--------------------||------|
A--------------------------------------------||------|
E--------------------------------------------||------|

////////////////////////////////////////////////////////////////////////////
5.SUNNY BLUE
///////////////

   F#         Gm#        Am#       B5  C#5
E----------------------------------------------|
A-----------------------------------2--4-------|
D-----------------------------------4--6-------|  X4
G--2/3-----3--4-------4--6-------6-------------|
B--------2------4---4------6---6---------------|
e------2----------4----------6-----------------|

F#        Gm#   Am#
Vimos los dos
   B5  C#5  F#        Gm#        Am#  B5 C#5
Que no haya sido un error como aquel
F#        Gm#   Am#
Siempre cambio
   B5 C#5  F#       Gm#      Am#  B5 C#5
Su forma de ser y dejo de vivir

CORO:
B5       F#5   C#5
Y si lo siento

Me lo pierdo no
B5       F#5  G#5     C#5
Y si lo siento, perderé
B5       F#5   C#5
Y si lo siento

Me lo pierdo no
B5      F#5   G#5    C#5
Y si lo siento, perderé

   F#         Gm#        Am#       B5  C#5
E----------------------------------------------|
A-----------------------------------2--4-------|
D-----------------------------------4--6-------|  X2
G--2/3-----3--4-------4--6-------6-------------|
B--------2------4---4------6---6---------------|
e------2----------4----------6-----------------|


F#         Gm#  Am#
Sigue el temor
    B5       C#5  F#        Gm#       Am#  B5 C#5
Que siempre he tenido al estar junto a ti
F#       Gm#  Am#
Nunca cambie
   B5   C#5  F#     Gm#     Am#  B5 C#5
Mi forma de ser y deje de vivir

CORO:
B5          F#5    C#5
Y eso no es cierto

No es un infierno no
B5         F#5     G#5     C#5
No es un infierno estar junto a ti
B5          F#5    C#5
Y eso no es cierto

No es un infierno no
B5         F#5     G#5     C#5
No es un infierno estar junto a ti


B F# C# F#, B F# Gm# C# X2

   F#         Gm#        Am#       B5  C#5
E----------------------------------------------|
A-----------------------------------2--4-------|
D-----------------------------------4--6-------|  X2
G--2/3-----3--3/4-----4--4/6-----6-------------|
B--------2----------4----------6---------------|
e------2----------4----------6-----------------|


CORO:
B5          F#5    C#5
Y eso no es cierto

No es un infierno no
B5         F#5     G#5     C#5
No es un infierno estar junto a ti
B5          F#5    C#5
Y eso no es cierto

No es un infierno no
B5         F#5     G#5     C#5
No es un infierno estar junto a ti

B5          F#5    C#5
Y eso no es cierto

No es un infierno no
B5         F#5     G#5     C#5
No es un infierno estar junto a ti
B5          F#5    C#5
Y eso no es cierto

No es un infierno no
B5          F#5   G#5
Y eso no es cierto

////////////////////////////////////////////////////////////////////////////
6.BUEN DIA
////////////

Intro    woooooooooooo....
e|-----------------------------------------|
b|-----------------------------------------|
g|-----------------------------------------|
d|-6666------6666------6666----------------|
a|-4444-4444-4444-4444-4444-4444-8888-6666-|
E|------2222------2222------2222-6666-4444-|x2

Verso
e|-----------------------------|
b|-----------------------------|
g|-----------------------------|
d|-666666----------------------|
a|-444444-666666-444444-666666-|
E|--------444444-222222-444444-|x4

Riff
e|-----------------------------------------|
b|-----------------------------------------|
g|-----------------------------------------|
d|-6666------6666------6666----------------|
a|-4444-4444-4444-4444-4444-4444-8888-6666-|
E|------2222------2222------2222-6666-4444-|x1

Verso x4

Coro
e|--------------------|
b|--------------------|
g|--------------------|
d|-6666---------------|
a|-4444-4444-66666666-|
E|------2222-44444444-|x4

Intro x2
Verso x4
Coro x4

Solo
e|--------------------------------------------|
b|--------------------------------------------|
g|--------------------------------------------|
d|--------------------------------------------|
a|-6\4-6-8-6-8---6-8-6-8-4--6-8-6-8---6-8-6-8-|
E|-------------6--------------------6---------|

e|---------------------------|   e|---|
b|---------------------------|   b|---|
g|-6666----------------------|   g|-6-|
d|-xxxx----------------------|   d|-x-|
a|-4444-6-8-6-4-8888-6-8-6-4-|   a|-4-|
E|--------------6666---------|x4 E|---|

Puente
"Me dejaste pero yo te kiero igual"
e|-x--x-x-|
b|-9--9-7-|
g|-10-8-6-|checa el ritmo y los tiempos
d|-11-x-x-|
a|-x--x-x-|
E|--------|

Coro x4

Outro
   woooooooooooo....
   "Me dejaste..."
e|-----------------------------------------|
b|-----------------------------------------|
g|-----------------------------------------|
d|-6666------6666------6666----------------|
a|-4444-4444-4444-4444-4444-4444-8888-6666-|
E|------2222------2222------2222-6666-4444-|x1

e|--------------------------------------------------------|
b|--------------------------------------------------------|
g|------------------------------------------------------6-|
d|-6666------6666------6666-----------------------------4-|
a|-4444-4444-4444-4444-4444-4444--8-8-8-8--6-6-6-6--4-----|
E|------2222------2222------2222--6-6-6-6--4-4-4-4--2-----|x1

////////////////////////////////////////////////////////////////////////////
7.SWEATER GEEK
/////////////////

Intro (0:00seg - 0:17seg)
e|------------------0-----|
B|----3----3---3---3-3----|
G|---0----0---0-----------| x6
D|--0----0---0---0--------|
A|------2---3-------------|
E|3-----------------------|

...Solo tu molestas... (0:17seg - 0:40seg)
(token cada nota y dejenla sonar)
e|-3----2------3----2----|
B|-3----3------3----3----|
G|-0----2------0----2----| x4
D|-0-----------2---------|
A|-2-----------3---------|
E|-3---------------------|

...Lo comprare... (0:40seg - 1:02seg)
(Aki si tokenla con rasgueo)
e|-3333----222------3333----222-|
B|-3222----333------333-----333-|
G|-000-----222------00------222-| x4
D|-00---------------22----------|
A|-22---------------3-----------|
E|-3----------------------------|

...Hey tu mirame a mi... (1:02seg - 1:14seg)
e|------------------0----|
B|----3----3---3---3-3---|
G|---0----0---0----------| x4
D|--0----0---0---0-------|
A|------2---3------------|
E|3----------------------|

...Ya no te vistas asi... (1:14seg - 1:25seg)
e|-3333----222------3333----222-|
B|-3222----333------333-----333-|
G|-000-----222------00------222-| x4
D|-00---------------22----------|
A|-22---------------3-----------|
E|-3----------------------------|

...Come on... (1:26seg - 1:36seg)
e|-----------------2-----|
B|----5----5---5--5-5----|
G|---2----2---2----------| x4
D|--2----2---0---2-------|
A|-0----4----------------|
E|-----------------------|

...Me separeeee de ti... (1:37seg - 1:59seg)
e|-3333----222------3333----222-|
B|-3222----333------333-----333-|
G|-000-----222------00------222-| x4
D|-00---------------22----------|
A|-22---------------3-----------|
E|-3----------------------------|

...Hey tu mirame a mi... (2:00seg - 2:21seg)
e|-0---4---2---4---------|
B|-2---5---3---5---------|
G|-2---4---2---4---------| x4
D|-2---------------------|
A|-0---------------------|
E|-----------------------|

(2:21seg - 2:28seg)
e|-|||--|||...go...------------------|
B|-|||--|||-|------------------------|
G|-|||--|||-|------------------------|
D|-|||--|||-|--4-6-7-6---------------|
A|-|||--|||-|--2-4-5-4--2-2-4-4-4-4--|
E|-|||--|||-|-----------0-0-2-2-2-2--|

(2:28seg - 2:36seg)
e|-------------------------------------------------|
B|-------------------------------------------------|
G|-------------------------------------------------|
D|-4-6-7-6--4-6-7-6---------------4-6-7-6--4-6-7-6-|
A|-2-4-5-4--2-4-5-4--2-2-4-4-4-4--2-4-5-4--2-4-5-4-|
E|-------------------0-0-2-2-2-2-------------------|

...Me separe de tiiii... (2:36seg - 2:58seg)
e|----------------------------------------|
B|----------------------------------------|
G|----------------------------------------|
D|2-2-2-2-------------7-7-7-7--9-9-9-9----| x4
A|0-0-0-0--2-2-2-2-2--5-5-5-5--7-7-7-7----|
E|---------0-0-0-0-0-----------0-0-0-0----|

...Ahora vuelves aki... (2:59seg - 3:05seg)
e|-5---4---2---4----------|
B|-5---5---3---5----------|
G|-2---4---2---4----------|
D|-2----------------------|
A|-0----------------------|
E|------------------------|

...Sabia ke volverias a mi... (3:05seg - 3:41seg)
e|-555---444---222---444------|
B|-555---555---333---555------|
G|-222---444---222---444------| x5
D|-222------------------------|
A|-00-------------------------|
E|----------------------------|

////////////////////////////////////////////////////////////////////////////
8.SI SUPIERAS
////////////////


Intro: 3 veces
Guitarra 1 o pricipal

|---9------9h8----8---11-8----9-8---8-|
|------9------------------------------|
|-8------8------8---8------8------8---|
|-------------------------------------|
|-------------------------------------|
|-------------------------------------|

Despues entran los demas instrumentos

Guitarra 1 o principal (x2) Riff 1
|-------------------------------------------------|
|-------------------------------------------------|
|-------------------------------------------------|
|-666-8-8-666-8-8-8/10-10-10-8-10-10/11-11-10-8-6-|
|-------------------------------------------------|
|-------------------------------------------------|

Enseguida este (x2)   Riff 2
|-----------------------------------------------------|
|-999-11-11-999-11-11-11/13-13-13-11-13-13/14-13-11-9-|
|-----------------------------------------------------|
|-----------------------------------------------------|
|-----------------------------------------------------|

Guitarra2 o acompañante (generalmente la del vocal)
|--------------------------------------------|
|--------------------------------------------|
|-----------------------6-6-6-6-6--8-8-8-8-8-|
|-6-6-6-6-6--8-8-8-8-8--6-6-6-6-6--8-8-8-8-8-|
|-6-6-6-6-6--8-8-8-8-8--4-4-4-4-4--6-6-6-6-6-|
|-4-4-4-4-4--6-6-6-6-6-----------------------|


Despues siguen estos acordes traten de rasguear bien
las cuerdas y principalmente las de abajo

Guitarra 2
  C#   G#   D2  A#2
|-4----6----4----6-|
|-4----6----4----6-|
|-5----7----6----8-|
|-6----8----6----8-|
|-6----8----4----6-|
|-4----6----4----6-|


Aqui entra la guitarra 1  0:51
|----------------------------------------|
|----------------------------------------|
|----------------------------------------|
|----6----6----6----6----8----8----8-6h8-|
|----------------------------------------|
|-44---44---44---44---66---66---66-------|

                                    1 Vez      2 Vez
|----------------------------------|--------|--------------------|
|----------------------------------|--------|--------------------|
|----6----6----6----6----8----8----|-8h10p8-|-8-8-8-8/10-10/12---|
|----------------------------------|--------|--------------------|
|-44---44---44---44---66---66---66-|--------/-6-6-6-6/8-8/10-----|
|----------------------------------|-----------------------------|

Coro: Ambas guitarras
Y siempre he sido, siempre he sido aburrido
|---------------|
|---------------|
|-----8-------6-|
|-6---8---8---6-|
|-6---6---8---4-|
|-4---6---6---4-|


Empieza de nuevo el riff 2 de la guitarra 1

mientras la guitarra 2 esta tocando los acordes
C#   G#   D2  A#2


Esto se toca en el minuto 1:43 es un arreglo

Guitarra 1
Si supieras mis secretos, si supieras
|----------------------------------------|
|----------------------------------------|
|----------------------------------------|
|-6-66-6--8-88-8--10-8-4-----------------|
|-6-66-6--8-88-8--10-8-4-----------------|
|-4-44-4--6-66-6--8--6-6-----------------|


Aqui entra la guitarra 1 de nuevo despues del arreglo
 1:56
|----------------------------------------|
|----------------------------------------|
|----------------------------------------|
|----6----6----6----6----8----8----8-6h8-|
|----------------------------------------|
|-44---44---44---44---66---66---66-------|

                                    1 Vez      2 Vez
|----------------------------------|--------|--------------------|
|----------------------------------|--------|--------------------|
|----6----6----6----6----8----8----|-8h10p8-|-8-8-8-8/10-10/12---|
|----------------------------------|--------|--------------------|
|-44---44---44---44---66---66---66-|--------/-6-6-6-6/8-8/10-----|
|----------------------------------|-----------------------------|

Coro: ambas guitarras

|---------------|
|---------------|
|-----8-------6-|
|-6---8---8---6-|
|-6---6---8---4-|
|-4---6---6---4-|


Aqui va el riff de la guitarra 1 con distorsion
va despues  del segundo coro y al final de la rola

|------------------------------------------|
|-8h9----9-8h9----9-8h9----9/13-11-9-8--9~-|
|-8---8----8---8----8---8---------------8~-|
|------------------------------------------|
|------------------------------------------|
|------------------------------------------|


Aqui se tranquiliza la rola y va solo la bateria
y el bajo.

El segundo arreglo guitarra 1

3:20
Y siempre he sido        siempre he sido aburrido

|-------------           -----------------------------|
|-------------           -----------------------------|
|-------------           -----------------------------|
|---6--6------           --8--8-----------------------|
|---6--6------           --8--8------------------12/4-|
|---4--4------           --6--6------------------12/4-|

Coro y despues termina con esto

Guitarra 2 con los acordes del coro
y la guitarra 1 termina con
|------------------------------------------|
|-8h9----9-8h9----9-8h9----9/13-11-9-8--8~-|
|-8---8----8---8----8---8---------------9~-|
|------------------------------------------|
|------------------------------------------|
|------------------------------------------|

////////////////////////////////////////////////////////////////////////////
9.EL GRAN MCGEE
/////////////////

INTRO
GUITARRA 1
|----------------------------------------------------------------|
|----------------------------------------------------------------|
|--3h4p3-4/6-4-3-3h4p3-3-4/6-4-3--3h4p3-4/6-4-3-3h4p3-3-----3----|
|-4-----4-------------4-4--------4-----4-------------4-4-4/6-6-4-|2 X
|----------------------------------------------------------------|
|----------------------------------------------------------------|

GUITARRA 2
|------------------------------------|
|------------------------------------|
|-----XXXX-6-6-----------------------|
|-4-4-XXXX-6-6-XX-8-8-XXX-9-9-XX-9-9-|4 X
|-4-4-XXXX-4-4-XX-8-8-XXX-9-9-XX-9-9-|
|-2-2----------XX-6-6-XXX-7-7-XX-7-7-|

VERSO
GUITARRA 1 Y 2
|------------------------------------|
|------------------------------------|
|-----XXXX-6-6-----------------------|
|-4-4-XXXX-6-6-XX-8-8-XXX-9-9-XX-9-9-|4 X
|-4-4-XXXX-4-4-XX-8-8-XXX-9-9-XX-9-9-|
|-2-2----------XX-6-6-XXX-7-7-XX-7-7-|

|---------------------------------|
|---------------------------------|
|---------6-6-6-6-----------------|
|-4-4-4-4-6-6-6-6-8-8-8-8-9-9-9-9-|4 X
|-4-4-4-4-4-4-4-4-8-8-8-8-9-9-9-9-|
|-2-2-2-2---------6-6-6-6-7-7-7-7-|

|-------------------------|
|-------------------------|
|-------------------------|
|-9-8-9-8-9-8-9-8-9-8-9-8-|
|-9-8-9-8-9-8-9-8-9-8-9-8-|
|-7-6-7-6-7-6-7-6-7-6-7-6-|

CORO
GUITARRA 1 Y 2
|---------------------------------|
|---------------------------------|
|---------6-6-6-6-8-8-8-8-6-6-6-6-|
|-4-4-4-4-6-6-6-6-8-8-8-8-6-6-6-6-|4 X
|-4-4-4-4-4-4-4-4-6-6-6-6-4-4-4-4-|
|-2-2-2-2-------------------------|

PRE-VERSO
GUITARRA 1
|----------------------------------------------------------------|
|----------------------------------------------------------------|
|--3h4p3-4/6-4-3-3h4p3-3-4/6-4-3--3h4p3-4/6-4-3-3h4p3-3-----3----|
|-4-----4-------------4-4--------4-----4-------------4-4-4/6-6-4-|
|----------------------------------------------------------------|
|----------------------------------------------------------------|

GUITARRA 2
|------------------------------------|
|------------------------------------|
|-----XXXX-6-6-----------------------|
|-4-4-XXXX-6-6-XX-8-8-XXX-9-9-XX-9-9-|2 X
|-4-4-XXXX-4-4-XX-8-8-XXX-9-9-XX-9-9-|
|-2-2----------XX-6-6-XXX-7-7-XX-7-7-|

VERSO
LA PRIMERA PARTE ES PURO BAJO
DESPUES:
|---------------------------------|
|---------------------------------|
|---------6-6-6-6-----------------|
|-4-4-4-4-6-6-6-6-8-8-8-8-9-9-9-9-|4 X
|-4-4-4-4-4-4-4-4-8-8-8-8-9-9-9-9-|
|-2-2-2-2---------6-6-6-6-7-7-7-7-|

|-------------------------|
|-------------------------|
|-------------------------|
|-9-8-9-8-9-8-9-8-9-8-9-8-|
|-9-8-9-8-9-8-9-8-9-8-9-8-|
|-7-6-7-6-7-6-7-6-7-6-7-6-|

CORO
GUITARRA 1 Y 2
|---------------------------------|
|---------------------------------|
|---------6-6-6-6-8-8-8-8-6-6-6-6-|
|-4-4-4-4-6-6-6-6-8-8-8-8-6-6-6-6-|4 X
|-4-4-4-4-4-4-4-4-6-6-6-6-4-4-4-4-|
|-2-2-2-2-------------------------|

BRIDGE
GUITARRA 1 Y 2
|------------------|   |-----------------------------------|
|------------------|   |-----------------------------------|
|------------------|   |-----------------------------------|
|-6-6-6-X-8-9-9999-|3X |-1111111111111111101110111011101110|
|-6-6-6-X-8-9-9999-|   |-1111111111111111101110111011101110|
|-4-4-4-X-6-7-7777-|   |-9-9-9-9-9-9-9-9-8-9-8-9-8-9-8-9-8-|

SOLO
GUITARRA 1
|-------------------------------------------------------------|
|-7-7-7-7-9-9/11-11-11-11-11-9-9/7-6-6/7-7-7-7-7-9-9/11-11-11-|
|-------------------------------------------------------------|
|-------------------------------------------------------------|
|-------------------------------------------------------------|
|-------------------------------------------------------------|

|----------------------|----------------------------------------------|
|-12-11-12-11-12-11-12-|-12h11p12-/14-12b14-12--12-12b14-12b14-12--12-|
|----------------------|----------------------14-----------------14---|
|----------------------|----------------------------------------------|
|----------------------|----------------------------------------------|
|----------------------|----------------------------------------------|
                       ........................4 x....................
GUITARRA 2
|------------------------------------|
|------------------------------------|
|-----XXXX-6-6-----------------------|
|-4-4-XXXX-6-6-XX-8-8-XXX-9-9-XX-9-9-|5 X
|-4-4-XXXX-4-4-XX-8-8-XXX-9-9-XX-9-9-|
|-2-2----------XX-6-6-XXX-7-7-XX-7-7-|

ULTIMO CORO
GUITRRA 2
|---------------------|
|---------------------|
|---------------------|
|-11101110111011101110|
|-11101110111011101110|
|-9-8-9-8-9-8-9-8-9-8-|

GUITARRA 1 Y 2
|----------------------|
|----------------------|
|----------------------|
|-6-6666-6-6666-6-6666-|
|-6-6666-6-6666-6-6666-|
|-4-4444-4-4444-4-4444-|

|---------------------------------|
|---------------------------------|
|---------8-8-8-8-101010108-8-8-8-|
|-6-6-6-6-8-8-8-8-101010108-8-8-8-|4 X
|-6-6-6-6-6-6-6-6-8-8-8-8-6-6-6-6-|
|-4-4-4-4-------------------------|

////////////////////////////////////////////////////////////////////////////
10.MUÑECA
///////////

Intro
----------------0-1-0---------------|
-1---3-1--1---3-------3-1---1h3-1-0-|
---0--------0-----------------------|   x2
------------------------------------|
-3----------------0-----------------|
----------3---------------1---------|

Guitarra ritmica
-----------------------------------|
-----------------------------------|
---4-4-4-4-------------------------| x4
---4-4-4-4-4-4-4-4-6-6-6-6-2-2-2-2-|
---2-2-2-2-4-4-4-4-6-6-6-6-2-2-2-2-|
-----------2-2-2-2-4-4-4-4-0-0-0-0-|

Guitarra 1
-----------6-7---------|
-4--5--6-------6—5--4--|
-----------------------| x4
-----------------------|
-----------------------|
-----------------------|

Guitarra 2
-------------------------------|
-0--2--0--2---4-5-4-2-0—2------|
---------------------------4-3-|
-------------------------------| x4
-------------------------------|
-------------------------------|

Guitarra 1 (Cambio de tono)
-----------------------------------|
-----------------------------------|
-6-6-6-6---------------------------|
-6-6-6-6-6-6-6-6-8-8-8-8-4-4-4-4---|l
-4-4-4-4-6-6-6-6-8-8-8-8-4-4-4-4---|
---------4-4-4-4-6-6-6-6-2-2-2-2---|l

Solo:

SOLO (Mientras toca la Guitarra 1 con el cambio de tono)
--------------------------|-------------------------|
----9---------------------|----9----------11-11-9-7-|
-10---8-10-8--------11-10-|-10---8-10-8-------------|
-------------11-11--------|-------------11----------|
--------------------------|-------------------------|
--------------------------|-------------------------|

--------------------9-----8-9-----8-9------8-9----------11-11-9-9-9-9~-|
----9----------11-11---------------------------------------------------|
-10--8-10-8----------11-10----11-10----11-10-----11-10-----------------|
------------11---------------------------------------------------------|
-----------------------------------------------------------------------|
-----------------------------------------------------------------------|

////////////////////////////////////////////////////////////////////////////
11.GRIPA Y MUNDIAL
////////////////////

#INTRO a# 2 VECES
e------------------------------------------------------|
B----------------------------------------7-7-7-7-6-----|
G-----4-3-6-4-3-------3-------3---4-3-6------------6---|
D---4-----------6-6-6---6-4-4---4----------------------|
A------------------------------------------------------|
E------------------------------------------------------|
:
#INTRO b# 2 VECES
e------------------------------------------------------|
B------------------------------------------------------|
G---------------6-6-6-6-6-6-------------4-4-4-6-6-6----|
D---4-4-4-4-4-4-6-6-6-6-6-6-4-4-4-4-4-4-4-4-4-6-6-6----|
A---4-4-4-4-4-4-4-4-4-4-4-4-4-4-4-4-4-4-2-2-2-4-4-4----|
E---2-2-2-2-2-2-------------2-2-2-2-2-2----------------|
:
#VERSO a&b# 2 VECES SIN DIST. (ESTILO SKA)
e---2-2-2-2-2-2-4-4-4-4-4-4-2-2-2-2-2-2-2-2-2-4-4-4----|
B---2-2-2-2-2-2-4-4-4-4-4-4-2-2-2-2-2-2-2-2-2-4-4-4----|
G---3-3-3-3-3-3-6-6-6-6-6-6-3-3-3-3-3-3-4-4-4-6-6-6----|
D---4-4-4-4-4-4-6-6-6-6-6-6-4-4-4-4-4-4-4-4-4-6-6-6----|
A---4-4-4-4-4-4-4-4-4-4-4-4-4-4-4-4-4-4-2-2-2-4-4-4----|
E---2-2-2-2-2-2-------------2-2-2-2-2-2----------------|
:
TOKAS EL #INTRO a&b# 1 VEZ
DESPUES EL #VERSO a&b# OTRAS 2 VECES
:
#CORO a&b# 4 VECES CON DIST.
e------------------------------|
B------------------------------|
G---------3-3-3-4-4-4-6-6-6----|
D---4-4-4-3-3-3-4-4-4-6-6-6----|
A---4-4-4-1-1-1-2-2-2-4-4-4----|
E---2-2-2----------------------|
:
TOKAS EL #VERSO a&b# 2 VECES
:
#PRE-CORO a&b# 2 VECES CON DIST.
e------------------------------|
B------------------------------|
G---8-8-8-6-6-6-4-4-4-3-4-6----|
D---8-8-8-6-6-6-4-4-4-3-4-6----|
A---6-6-6-4-4-4-2-2-2-1-2-4----|
E------------------------------|
:
#CORO a&b# 4 VECES CON DIST.{ LA 4TA VEZ}
e---------------------------|-----------|
B---------------------------|-----------|
G---------5-5-5-6-6-6-8-8-8-|-----------|
D---6-6-6-5-5-5-6-6-6-8-8-8-|-----4-----|
A---6-6-6-3-3-3-4-4-4-6-6-6-|-----4-----|
E---4-4-4-------------------|-----2-----|
:
#PUENTE a# 4 VECES SIN DIST.
e------------------------------------------------------|
B---------------------7-7-6-----------------------7----|
G---------6-4---4-4-4-------------6-4---4-4-4-6-6------|
D---4-4-4-----6-------------4-4-4-----6----------------|
A------------------------------------------------------|
E------------------------------------------------------|
:
#PUENTE b# 4 VECES SIN DIST.
e---2-2---2-2---4-4---4-4---2-2---2-2---2-2---4-4------|
B---2-2---2-2---4-4---4-4---2-2---2-2---2-2---4-4------|
G---3-3---3-3---6-6---6-6---3-3---3-3---4-4---6-6------|
D---4-4---4-4---6-6---6-6---4-4---4-4---4-4---6-6------|
A------------------------------------------------------|
E------------------------------------------------------|
:
#PRE-CORO a&b# 4 VECES CON DIST.
e------------------------------|
B------------------------------|
G---8-8-8-6-6-6-4-4-4-3-4-6----|
D---8-8-8-6-6-6-4-4-4-3-4-6----|
A---6-6-6-4-4-4-2-2-2-1-2-4----|
E------------------------------|
:
TOKAS EL #INTRO a&b# 4 VECES
:
FIN!

////////////////////////////////////////////////////////////////////////////
12.TE INVITO A MI FIESTA
/////////////////////////

~ = deja vibrar
x = no suena
PM= palm mute (si no sabes que es esto y tocas punk tas jodido macho)
/ = desliza hacia la derecha
\ = desliza hacia la izquierda


Intro Guitarra 1:

----------------|
----------------|
--9~~~----------|
--9~~~----------|
--7~~~----------|
----------------|

Guitarra 2:

----------------|
----------------|
--9--4--8--9----|
--x--x--x--x----|
--7--2--6--7----|
----------------|

Scratch con la plumilla:

Guitarra 1:

----------------|
----------------|
--------2--4----|
--2--4--2--4----|
--2--4--0--2----|
--0--2----------|

Guitarra 2:

----------------------------------------------------|
----------------------------------------------------|
--9--8--4--8--9--14--13-----9--8--4--8--9--11--13---|
--x--x--x--x--x--x---x------x--x--x--x--x--x---x----|
--7--6--2--6--7--12--11-----7--6--2--6--7--9---11---|
----------------------------------------------------|

Te invito a pasar...

Aqui es puro bajo, pero si quieres aqui esta lo que hace:

-------------|
-------------|
-------------|
-------------|
----2--0-----|
-0-----------| Así hasta el coro.

Cuentame te la estas pasando...

Guitarras 1 y 2:

----------------|
----------------|
--------2--4----|
--2--4--2--4----|
--2--4--0--2----|
--0--2----------|

Para Tí...

Guitarra 1:

----------------|
----------------|
--------2--4----|
--2--4--2--4----|
--2--4--0--2----|
--0--2----------|

Guitarra 2:

----------------------------------------------------|
----------------------------------------------------|
--9--8--4--8--9--14--13-----9--8--4--8--9--11--13---|
--x--x--x--x--x--x---x------x--x--x--x--x--x---x----|
--7--6--2--6--7--12--11-----7--6--2--6--7--9---11---|
----------------------------------------------------|

Me llego un rumor...

-------------|
-------------|
-------------|
-------------|
----2--0-----|
-0-----------|

Dime porque y así yo te entenderé...


-------------|
-------------|
-------------|
-------------|
-------5-----|
-0--5--------|

Tienes miedo de...

Guitarra 1 y 2:

-------------|
-------------|
-9--4--2-----|
-9--4--2-----|
-7--2--0-----|
-------------|

Cuentame te la estas pasando...

Guitarras 1 y 2:

----------------|
----------------|
--------2--4----|
--2--4--2--4----|
--2--4--0--2----|
--0--2----------|

Bridge:

Cuentame te la estas pasando...

Guitarra 2:

-------------------|
--4~~-4/9\4\2-1h2--| cuatro veces
-------------------|
-------------------|
-------------------|
-------------------|

Cuentame te la estas pasando...

Guitarra 1:

----------------|
----------------|
--------2--4----|
--2--4--2--4----|
--2--4--0--2----|
--0--2----------|

Guitarra 2:

--------------------|
--------------------|
--9/8\9--11--13--14-|
--x/x\x--x---x---x--|
--7/6\7--9---11--12-|
--------------------|
/////////////////////////////////////////////////////////////

Estas canciones se las dedico como dije antes a Monica quien nunca a oido este disco
comments
We did not receive enough feedback on this tab! Please rate:
print report bad tab
1 2 3 4 5
I want to post or [tab]
guest
You may want to rate the tab now too:
select rating
Please do not post tabs as comments. Select "correction" instead!