Oops, an error
Loading. Please wait.

El Cuello Perfecto tab

version 2
version 2

Whole song

Interactive

by Panda
3,394 views 1 this week
no commentswrite comment
1 2 3 4 5
x 4
add to favorites
×
Save as Personal and add changes to this tab that will be seen only by you. Learn more ›
×
You can save this tab as Personal to edit and correct it or add notes. All changes will be seen only by you. Learn more »
launch autoscroll
font size
0
reset
how to read this tab
guitar tuner
edit
Autoscroll
slow
fast
+/-
esc
set tempo
stop
Author
Intro:

D#||--2--x--2--x--2--2--2--2--|--x--2--2--2--x--2--2--2--|
A#||--3--x--3--x--3--3--3--2--|--x--2--2--3--x--3--3--2--|
F#||--4--x--4--x--4--4--4--4--|--x--4--4--4--x--4--4--4--|
C#||--4--x--4--x--4--4--4--4--|--x--4--4--4--x--4--4--4--|
G#||--2--x--2--x--2--2--2--2--|--x--2--2--2--x--2--2--2--|
D#||--2--x--2--x--2--2--2--2--|--x--2--2--2--x--2--2--2--|


--2--x--2--x--2--2--2--2--|--x--2--2--2--x--2--2--2--|
--3--x--3--x--3--3--3--2--|--x--2--2--3--x--3--3--2--|
--2--x--2--x--2--2--2--2--|--x--2--2--2--x--2--2--2--|
--------------------------|--------------------------|
--------------------------|--------------------------|
--------------------------|--------------------------|


--3--x--3--x--3--3--3--5--|--x--5--5--3--x--3--3--3--|
--3--x--3--x--3--3--3--3--|--x--3--3--3--x--3--3--3--|
--4--x--4--x--4--4--4--4--|--x--4--4--4--x--4--4--4--|
--------------------------|--------------------------|
--------------------------|--------------------------|
--------------------------|--------------------------|

--2--x--2--x--2--3--2--0--|--x--0--0--0--x--0--0--0--|--2--x--2--x--2--2--2--2--|
--3--x--3--x--3--3--3--3--|--x--3--3--3--x--3--3--3--|--3--x--3--x--3--3--3--2--|
--2--x--2--x--2--2--2--2--|--x--2--2--2--x--2--2--2--|--4--x--4--x--4--4--4--4--|
--------------------------|--------------------------|--------------------------|
--------------------------|--------------------------|--------------------------|
--------------------------|--------------------------|--------------------------|
Verso 1:

--2--x--2--x--2--2--2--2--|--x--2--2--2--x--2--2--2--|
--3--x--3--x--3--3--3--2--|--x--2--2--3--x--3--3--2--|
--4--x--4--x--4--4--4--4--|--x--4--4--4--x--4--4--4--|
--4--x--4--x--4--4--4--4--|--x--4--4--4--x--4--4--4--|
--2--x--2--x--2--2--2--2--|--x--2--2--2--x--2--2--2--|
--2--x--2--x--2--2--2--2--|--x--2--2--2--x--2--2--2--|


--2--x--2--x--2--2--2--2--|--x--2--2--2--x--2--2--2--|
--3--x--3--x--3--3--3--2--|--x--2--2--3--x--3--3--2--|
--2--x--2--x--2--2--2--2--|--x--2--2--2--x--2--2--2--|
--------------------------|--------------------------|    X2
--------------------------|--------------------------|
--------------------------|--------------------------|

verso 2:
r2d2:
--------------------|------------------------|-----------------------|
--7-----------------|--10--------------------|-----------------------|
--9b----------------|--12b--------4--6----7--|--L--7------6--7----9--|
--------------------|------------------------|-----------------------|
--------------------|------------------------|-----------------------|
--------------------|------------------------|-----------------------|
 
----------------------|--------------------|------------------------|
----------------------|--7-----------------|--10--------------------|
--L--9--9~------------|--9b----------------|--12b--------4--6----7--|
----------------------|--------------------|------------------------|
----------------------|--------------------|------------------------|
----------------------|--------------------|------------------------|
            
-----------------------|----------------------|
-----------------------|----------------------|
--L--7------6--7----9--|--L--9--9~------------|
-----------------------|----------------------|
-----------------------|----------------------|
-----------------------|----------------------|


pp:

-------|-------|--------------------------|--------------------------|
-------|-------|--------------------------|--------------------------|
-------|-------|--------------------------|--------------------------|
-------|-------|--2--2--2--2--2--2--2--2--|--2--2--2--2--2--2--2--2--|
-------|-------|--2--2--2--2--2--2--2--2--|--2--2--2--2--2--2--2--2--|
-------|-------|--0--0--0--0--0--0--0--0--|--0--0--0--0--0--0--0--0--|
 
--------------------------|--------------------------|
--------------------------|--------------------------|
--2--2--2--2--2--2--2--2--|--2--2--2--2--2--2--2--2--| X2
--2--2--2--2--2--2--2--2--|--2--2--2--2--2--2--2--2--|
--0--0--0--0--0--0--0--0--|--0--0--0--0--0--0--0--0--|
--------------------------|--------------------------|
verso 3:
r2d2:
--2--x--2--x--2--2--2--2--|--x--2--2--2--x--2--2--2--|
--3--x--3--x--3--3--3--2--|--x--2--2--3--x--3--3--2--|
--4--x--4--x--4--4--4--4--|--x--4--4--4--x--4--4--4--|
--4--x--4--x--4--4--4--4--|--x--4--4--4--x--4--4--4--|
--2--x--2--x--2--2--2--2--|--x--2--2--2--x--2--2--2--|
--2--x--2--x--2--2--2--2--|--x--2--2--2--x--2--2--2--|

--2--x--2--x--2--2--2--2--|--x--2--2--2--x--2--2--2--|
--3--x--3--x--3--3--3--2--|--x--2--2--3--x--3--3--2--|
--2--x--2--x--2--2--2--2--|--x--2--2--2--x--2--2--2--|
--------------------------|--------------------------|    X2
--------------------------|--------------------------|
--------------------------|--------------------------|


|--2----------------|--3----------------|
|--3----------------|--2----------------|
|--4----------------|--3----------------|   X2
|--4----------------|--0----------------|
|--2----------------|--0----------------|
|--2----------------|-------------------|

verso 4:
r2d2:
--------------------|------------------------|-----------------------|
--7-----------------|--10--------------------|-----------------------|
--9b----------------|--12b--------4--6----7--|--L--7------6--7----9--|
--------------------|------------------------|-----------------------|
--------------------|------------------------|-----------------------|
--------------------|------------------------|-----------------------|
 
----------------------|--------------------|------------------------|
----------------------|--7-----------------|--10--------------------|
--L--9--9~------------|--9b----------------|--12b--------4--6----7--|
----------------------|--------------------|------------------------|
----------------------|--------------------|------------------------|
----------------------|--------------------|------------------------|
            
-----------------------|----------------------|
-----------------------|----------------------|
--L--7------6--7----9--|--L--9--9~------------|
-----------------------|----------------------|
-----------------------|----------------------|
-----------------------|----------------------|


pp:

-------|-------|--------------------------|--------------------------|
-------|-------|--------------------------|--------------------------|
-------|-------|--------------------------|--------------------------|
-------|-------|--2--2--2--2--2--2--2--2--|--2--2--2--2--2--2--2--2--|
-------|-------|--2--2--2--2--2--2--2--2--|--2--2--2--2--2--2--2--2--|
-------|-------|--0--0--0--0--0--0--0--0--|--0--0--0--0--0--0--0--0--|
 
--------------------------|--------------------------|
--------------------------|--------------------------|
--2--2--2--2--2--2--2--2--|--2--2--2--2--2--2--2--2--| X2
--2--2--2--2--2--2--2--2--|--2--2--2--2--2--2--2--2--|
--0--0--0--0--0--0--0--0--|--0--0--0--0--0--0--0--0--|
--------------------------|--------------------------|

Pre-coro:
r2d2:

|-------------------|-------------------|
|-------------------|-------------------|
|-------------------|-------------------|
|--5----------------|-------------------|
|--5----------------|-------------------|
|--3----------------|-------------------|

-------------------|-------------------|
-------------------|-------------------|
-------------------|-------------------|
--9----------------|--7----------------|
--9----------------|--7----------------|
--7----------------|--5----------------|

pp:

|--3----------------|
|--3----------------|
|--0----------------|
|--0----------------|
|--2----------------|
|--3----------------|


-------------------|--2--2--2--2--2--2--2--2--|--0--0--0--0--0--0--0--0--|
-------------------|--3--3--3--3--3--3--3--3--|--2--2--2--2--2--2--2--2--|
-------------------|--4--4--4--4--4--4--4--4--|--2--2--2--2--2--2--2--2--|
-------------------|--4--4--4--4--4--4--4--4--|--2--2--2--2--2--2--2--2--|
-------------------|--2--2--2--2--2--2--2--2--|--0--0--0--0--0--0--0--0--|
-------------------|--------------------------|--------------------------|

coro:
r2d2:

|--------------------------|
|--------------------------|
|--------14----------14----|
|--16----------16----------|
|--------------------------|
|--------------------------|

--------------------------|----------------------|----------------------|
--------------------------|----------------------|----------------------|
--------14----------14----|-------6---------6----|-------6---------6----|
--16----------16----------|--7---------7---------|--7---------7---------|
--------------------------|----------------------|----------------------|
--------------------------|----------------------|----------------------|

--------------------------|--------------------------|
--------------------------|--------------------------|
--------12----------12----|--------12----------12----|
--12----------12----------|--12----------12----------|
--------------------------|--------------------------|
--------------------------|--------------------------|

--------------------------|--------------------------|
--------------------------|--------------------------|
--------14----------14----|--------16----14----------|
--16----------16----------|--16----------------16----| X2
--------------------------|--------------------------|
--------------------------|--------------------------|

pp:

--2--2--2--2--2--2--2--2--|--2--2--2--2--2--2--2--2--|
--3--3--3--3--3--3--3--3--|--3--3--3--3--3--3--3--3--|
--4--4--4--4--4--4--4--4--|--4--4--4--4--4--4--4--4--|
--4--4--4--4--4--4--4--4--|--4--4--4--4--4--4--4--4--|
--2--2--2--2--2--2--2--2--|--2--2--2--2--2--2--2--2--|
--------------------------|--------------------------|

--2--2--2--2--2--2--2--2--|--2--2--2--2--2--2--2--2--|
--3--3--3--3--3--3--3--3--|--3--3--3--3--3--3--3--3--|
--2--2--2--2--2--2--2--2--|--2--2--2--2--2--2--2--2--|
--0--0--0--0--0--0--0--0--|--0--0--0--0--0--0--0--0--|
--0--0--0--0--0--0--0--0--|--0--0--0--0--0--0--0--0--|
--------------------------|--------------------------|

--3--3--3--3--3--3--3--3--|--3--3--3--3--3--3--3--3--|
--3--3--3--3--3--3--3--3--|--3--3--3--3--3--3--3--3--|
--0--0--0--0--0--0--0--0--|--0--0--0--0--0--0--0--0--|
--0--0--0--0--0--0--0--0--|--0--0--0--0--0--0--0--0--|
--2--2--2--2--2--2--2--2--|--2--2--2--2--2--2--2--2--|
--3--3--3--3--3--3--3--3--|--3--3--3--3--3--3--3--3--|

--0--0--0--0--0--0--0--0--|--0--0--0--0--0--0--0--0--|
--2--2--2--2--2--2--2--2--|--2--2--2--2--2--2--2--2--|
--2--2--2--2--2--2--2--2--|--2--2--2--2--2--2--2--2--|
--2--2--2--2--2--2--2--2--|--2--2--2--2--2--2--2--2--|
--0--0--0--0--0--0--0--0--|--0--0--0--0--0--0--0--0--|
--------------------------|--------------------------|

--2--2--2--2--2--2--2--2--|--2--2--2--2--2--2--2--2--|
--3--3--3--3--3--3--3--3--|--3--3--3--3--3--3--3--3--|
--4--4--4--4--4--4--4--4--|--4--4--4--4--4--4--4--4--|
--4--4--4--4--4--4--4--4--|--4--4--4--4--4--4--4--4--|
--2--2--2--2--2--2--2--2--|--2--2--2--2--2--2--2--2--|
--------------------------|--------------------------|

--2--2--2--2--2--2--2--2--|--2--2--2--2--2--2--2--2--|
--3--3--3--3--3--3--3--3--|--3--3--3--3--3--3--3--3--|
--2--2--2--2--2--2--2--2--|--2--2--2--2--2--2--2--2--|
--0--0--0--0--0--0--0--0--|--0--0--0--0--0--0--0--0--|
--0--0--0--0--0--0--0--0--|--0--0--0--0--0--0--0--0--|
--------------------------|--------------------------|

--3--3--3--3--3--3--3--3--|--3--3--3--3--3--3--3--3--|
--3--3--3--3--3--3--3--3--|--3--3--3--3--3--3--3--3--|
--0--0--0--0--0--0--0--0--|--0--0--0--0--0--0--0--0--|
--0--0--0--0--0--0--0--0--|--0--0--0--0--0--0--0--0--|
--2--2--2--2--2--2--2--2--|--2--2--2--2--2--2--2--2--|
--3--3--3--3--3--3--3--3--|--3--3--3--3--3--3--3--3--|

--2--2--2--2--2--2--2--2--|--0--0--0--0--0--0--0--0--|--3----------------|
--3--3--3--3--3--3--3--3--|--2--2--2--2--2--2--2--2--|--3----------------|
--2--2--2--2--2--2--2--2--|--2--2--2--2--2--2--2--2--|--0----------------|
--0--0--0--0--0--0--0--0--|--2--2--2--2--2--2--2--2--|--0----------------|
--0--0--0--0--0--0--0--0--|--0--0--0--0--0--0--0--0--|--2----------------|
--------------------------|--------------------------|--3----------------|
se vuelve a tocar el intro
verso 5: pura bateria
verso 6:
--2--x--2--x--2--2--2--2--|--x--2--2--2--x--2--2--2--|
--3--x--3--x--3--3--3--2--|--x--2--2--3--x--3--3--2--|
--4--x--4--x--4--4--4--4--|--x--4--4--4--x--4--4--4--|
--4--x--4--x--4--4--4--4--|--x--4--4--4--x--4--4--4--|
--2--x--2--x--2--2--2--2--|--x--2--2--2--x--2--2--2--|
--2--x--2--x--2--2--2--2--|--x--2--2--2--x--2--2--2--|

--2--x--2--x--2--2--2--2--|--x--2--2--2--x--2--2--2--|
--3--x--3--x--3--3--3--2--|--x--2--2--3--x--3--3--2--|
--2--x--2--x--2--2--2--2--|--x--2--2--2--x--2--2--2--|
--------------------------|--------------------------|    X2
--------------------------|--------------------------|
--------------------------|--------------------------|
verso 7:
r2d2:
--14~~~~~17--------------------------14~~~~~~17---------------|
--17b19~~~~---19r17-15-17--15-14-----17b19~~~~~---19r17-15-17-|
--------------------------------------------------------------|
--------------------------------------------------------------|
--------------------------------------------------------------|
--------------------------------------------------------------|
pp:
-------|-------|--------------------------|--------------------------|
-------|-------|--------------------------|--------------------------|
-------|-------|--------------------------|--------------------------|
-------|-------|--2--2--2--2--2--2--2--2--|--2--2--2--2--2--2--2--2--|
-------|-------|--2--2--2--2--2--2--2--2--|--2--2--2--2--2--2--2--2--|
-------|-------|--0--0--0--0--0--0--0--0--|--0--0--0--0--0--0--0--0--|
 
--------------------------|--------------------------|
--------------------------|--------------------------|
--2--2--2--2--2--2--2--2--|--2--2--2--2--2--2--2--2--| X2
--2--2--2--2--2--2--2--2--|--2--2--2--2--2--2--2--2--|
--0--0--0--0--0--0--0--0--|--0--0--0--0--0--0--0--0--|
--------------------------|--------------------------|
coro igual
solo 1era parte:
r2d2:
SIMBOLOGIA
b=bend
s=slide
h=hammer on
p=pull of
()= ghost note

|--------------------|
|--------------------|
|-5s7------------9---|
|--------------------|
|--------------------|
|--------------------|


----------------------|----------------------|-----------------------|
----------------------|----------------------|-----------------------|
--9b------------9--7--|--9b------------7-----|--7--9--7--9--0--------|
----------------------|-------------------7--|-----------------------|
----------------------|----------------------|-----------------------|
----------------------|----------------------|-----------------------|

---------------------|------------------------|----------12--------|
------------7--------|---8---------10---------|--12----12---12------
------------9b-------|--10b--------12b--------|--14b------------(14)--14b--
---------------------|------------------------|----------------------------|
---------------------|------------------------|----------------------------|
---------------------|------------------------|----------------------------|

--------------------------------|----------------------------------|
--------------------------------|----------------------------------|
--------------------------------|--5h7h9p7p5-----------------------|
-------------------------5h7h9--|----------------9p7p5h7h9---------|
----------------5h7h9-----------|----------------------------------|
--0-----------------------------|----------------------------------|

--------------------------------------------------------------|
--------------------------------------------------------------|
--5h7h9h11-p9h7h9h11h12p-11p9h11h12h14-----------------------
--------------------------------------------------------------|
--------------------------------------------------------------|
--------------------------------------------------------------|


|--17--15--14h15--------14---------------|
|-------------------17------17--15h17----|
|----------------------------------------|
|----------------------------------------|
|----------------------------------------|
|----------------------------------------|


---------------------------------|---------------------14--15--17----|
--14--15--14---------------------|---------14--15--17----------------|
--------------16--14--16---16----|----16-----------------------------|
---------------------------------|-----------------------------------|
---------------------------------|-----------------------------------|
---------------------------------|-----------------------------------|


 el 19 es tap rapido con el filo de la plumilla)
--17-19-17-19-17-19-17-19-17-19-17-19-17-19-17-19-|
--------------------------------------------------|
--------------------------------------------------|
--------------------------------------------------|
--------------------------------------------------|
--------------------------------------------------|
 pp:

|--3----------------|
|--3----------------|
|--0----------------|
|--0----------------|
|--2----------------|
|--3----------------|

-------------------|--2------------------|-------------------|
-------------------|--3-------------2----|-------------------|
-------------------|--4-------------2----|-------------------|
-------------------|--4-------------2----|-------------------| X2
-------------------|--2-------------0----|-------------------|
-------------------|---------------------|-------------------|

-------------------|-------------------|-------------------|
-------------------|-------------------|-------------------|
-------------------|-------------------|-------------------|
-------------------|--2----------------|-------------------|
-------------------|--2----------------|-------------------|
-------------------|--0----------------|-------------------|

-------------------|--2------------------|-------------------|
-------------------|--3-------------2----|-------------------|
-------------------|--4-------------2----|-------------------|
-------------------|--4-------------2----|-------------------| X2
-------------------|--2-------------0----|-------------------|
-------------------|---------------------|-------------------|

solo 2da parte:
r2d2:
   
------------------------------|---L-----------------------|
--19br------15--17----19br----|------15--17---------------|
------------------------------|----------------16~--------|
------------------------------|---------------------------|
------------------------------|---------------------------|
------------------------------|---------------------------|
   
----------------------17b----|--17--15--14--15--14------------|
--19br------15--17-----------|----------------------17--15----|
-----------------------------|--------------------------------|
-----------------------------|--------------------------------|
-----------------------------|--------------------------------|
-----------------------------|--------------------------------|
      
------------------------------|---L-----------------------|
--19br------15--17----19br----|------15--17---------------|
------------------------------|----------------16~--------|
------------------------------|---------------------------|
------------------------------|---------------------------|
------------------------------|---------------------------|
    
--14br------------------------|-----------------------------------|
------------15--17----14--14--|--14s--15--15s--17--17s--19--19----|
------------------------------|-----------------------------------|
------------------------------|-----------------------------------|
------------------------------|-----------------------------------|
------------------------------|-----------------------------------|
     
-------------------------------|---------------------------|
--15----14-----------------14--|--15----14-----------------|
------------14p--11----14------|------------14p--11--------|
-------------------------------|---------------------------|
-------------------------------|---------------------------|
-------------------------------|---------------------------|
  
-------------------------------|------------------------|
--15----14---------------------|------------------------|
------------14p--11----11p--9--|--9----11b----11--------|
-------------------------------|------------------------|
-------------------------------|------------------------|
-------------------------------|------------------------|
         
------------------------------|---L-----------------------|
--19br------15--17----19br----|------15--17---------------|
------------------------------|----------------16~--------|
------------------------------|---------------------------|
------------------------------|---------------------------|
------------------------------|---------------------------|
         
----------------------17--17--|--17\-----------------||
--19br------15--17----17--17--|--17\-----------------||
------------------------------|----------------------||
------------------------------|----------------------||
------------------------------|----------------------||
------------------------------|----------------------||
pp:

  
--3--3--3---------3--3--|--3-----------------|--2--2--2---------------|
--3--3--3---------3--3--|--3-----------------|--3--3--3---------2--2--|
--0--0--0---------0--0--|--0-----------------|--4--4--4---------2--2--|
--0--0--0---------0--0--|--0-----------------|--4--4--4---------2--2--|
--2--2--2---------2--2--|--2-----------------|--2--2--2---------0--0--|
--3--3--3---------3--3--|--3-----------------|------------------------|
         
--------------------|--3--3--3---------3--3--|--3-----------------|
--2-----------------|--3--3--3---------3--3--|--3-----------------|
--2-----------------|--0--0--0---------0--0--|--0-----------------|
--2-----------------|--0--0--0---------0--0--|--0-----------------|
--0-----------------|--2--2--2---------2--2--|--2-----------------|
--------------------|--3--3--3---------3--3--|--3-----------------|
  
--2--2--2---------------|--------------------|------------------------|
--3--3--3---------2--2--|--2-----------------|------------------------|
--4--4--4---------2--2--|--2-----------------|------------------------|
--4--4--4---------2--2--|--2-----------------|--2--2--2---------2--2--|
--2--2--2---------0--0--|--0-----------------|--2--2--2---------2--2--|
------------------------|--------------------|--0--0--0---------0--0--|
           
--------------------|--2--2--2---------------|--------------------|
--------------------|--3--3--3---------2--2--|--2-----------------|
--------------------|--4--4--4---------2--2--|--2-----------------|
--2-----------------|--4--4--4---------2--2--|--2-----------------|
--2-----------------|--2--2--2---------0--0--|--0-----------------|
--0-----------------|------------------------|--------------------|
 
------------------------|--------------------|--2--2--2---------------|
------------------------|--------------------|--3--3--3---------2--2--|
------------------------|--------------------|--4--4--4---------2--2--|
--2--2--2---------2--2--|--2-----------------|--4--4--4---------2--2--|
--2--2--2---------2--2--|--2-----------------|--2--2--2---------0--0--|
--0--0--0---------0--0--|--0-----------------|------------------------|
           
--------------------||
--2-----------------||
--2-----------------||
--2-----------------||
--0-----------------||
--------------------||




Dudas, Comentarios y/o mentadas de madre al correo: panda_vetealaverga@hotmail.com

            
            
Suggest correction
Creating personal tab
Creating personal tab
You can edit any tab online and save it as your Personal.

You can edit, replace or remove any tab part or add personal notes – all changes will be seen only by you.

Personal tabs can be accessed anytime from any device, even offline.
Learn more »
comments
print report bad tab
guest
You may want to rate the tab now too:
select rating
Wanna post a correction for this tab? Suggest correction