Oops, an error
Loading. Please wait.

Fascinante tab

version 3
version 3

Whole song

Interactive

by Panda
45 views 1 this week
no commentswrite comment
1 2 3 4 5
3 more votes to show rating
add to favorites
×
Save as Personal and add changes to this tab that will be seen only by you. Learn more ›
×
You can save this tab as Personal to edit and correct it or add notes. All changes will be seen only by you. Learn more »
launch autoscroll
font size
0
reset
how to read this tab
guitar tuner
edit
Autoscroll
slow
fast
+/-
esc
set tempo
stop
Author
Unregistered
AQUI DEJO FASCINANTE DEL DISCO POETICS DE PANDA
EN AFINACIÓN STANDARD

LAS PARTES QUE DICEN GUITARRA 1 Y GUITARRA 2 SON SIMULTANEAS
EL RESTO LO HACEN CON UNA SOLA GUITARRA...

INTRO X 2

    D#         F#     B        C#
e|-------------------------------------|
B|-------------------------------------|
G|-88888888----------44444444-66666666-|
D|-88888888-44444444-44444444-66666666-|
A|-66666666-44444444-22222222-44444444-|
E|----------22222222-------------------|


VERSOS

e|-------------13-------------14-------|
B|----11----11-------11----11------11--| ECO Y DELAY
G|-13----13-------13----13------13-----|   X 8
D|-------------------------------------|
A|-------------------------------------|
E|-------------------------------------|


 GUITARRA 1
    D#          F#         B           C#
e|-----------------------------------------------|
B|-----------------------------------------------| MUTEADO
G|-8888-8888---------------4444-4444---6666-6666-| CON LA PALMA
D|-8888-8888---4444-4444---4444-4444---6666-6666-| DE LA MANO
A|-6666-6666---4444-4444---2222-2222---4444-4444-|
E|-------------2222-2222-------------------------|
                                                       X 2
  GUITARRA 2
e|-----------------------------------------------|
B|-----6----6------------------------------------|
G|--8-8--8-8-------------------2----4------4---6-| DISTORCIÓN
D|-6-6--6-6--------2----2---4-4--4-4----6-6-6-6--|
A|--------------4-4--4-4---2-2--2-2----4-4-4-4---|
E|-------------2-2--2-2--------------------------|


CORO

   F#       C#        A#      C    C#
e|----------------------------------------------------|
B|----------------------------------------------------|
G|----------66666666----------------------------------|
D|-44444444-66666666-88888888-10-10-10-10-11-11-11-11-|  X 2
A|-44444444-44444444-88888888-10-10-10-10-11-11-11-11-|
E|-22222222----------66666666-8--8--8--8--9--9--9--9--|

    D#         F#     B        C#
e|-------------------------------------|
B|-------------------------------------|
G|-88888888----------44444444-66666666-|
D|-88888888-44444444-44444444-66666666-|     X 2
A|-66666666-44444444-22222222-44444444-|
E|----------22222222-------------------|

SOLO

 GUITARRA 1
e|----6---------------------------6----------------|
B|-777-7-7/6/7-----------6-9-6-777-7-7/6/7----6----|
G|-------------6H8P6-----------------------6H8-8P6-|
D|-------------------------------------------------|
A|-------------------------------------------------|
E|-------------------------------------------------|

 GUITARRA 2
  D#          F#         B           C#
e|-----------------------------------------------|
B|-----------------------------------------------| MUTEADO
G|-8888-8888---------------4444-4444---6666-66~~-| CON LA PALMA
D|-8888-8888---4444-4444---4444-4444---6666-66~~-| DE LA MANO
A|-6666-6666---4444-4444---2222-2222---4444-44~~-|
E|-------------2222-2222-------------------------|

PARTE VOCAL Y CUERDAS

QUE INCREIBLE ES QUE NO EXISTA MANERA

             F#                   C#
e|-------------------------------------------------|
B|-------------------------------------------------|
G|--------------------------------6~---------------|
D|---------- 4~-------------------6~---------------|
A|-----------4~-------------------4~---------------|
E|-----------2~------------------------------------|

QUE EN MI VIDA ENTERA YO ME PUEDA EQUIVOCAR
                 A#               C     C#
e|---------------------------------------------------|
B|---------------------------------------------------|
G|---------------------------------------------------|
D|---------------8~---------------10~---11~----------|
A|---------------8~---------------10~---11~----------|
E|---------------6~---------------8~----9~-----------|


QUE INCREIBLE ES TENER CONTROL DE TODO

             F#                   C#
e|-------------------------------------------------|
B|-------------------------------------------------|
G|--------------------------------6~---------------|
D|---------- 4~-------------------6~---------------|
A|-----------4~-------------------4~---------------|
E|-----------2~------------------------------------|

QUE NO EXISTA MODO QUE ALGO PUEDA SALIR MAL
                 A#               C     C#
e|---------------------------------------------------|
B|---------------------------------------------------|
G|---------------------------------------------------|
D|---------------8~---------------10~---11~----------|
A|---------------8~---------------10~---11~----------|
E|---------------6~---------------8~----9~-----------|


FINAL X 4

 GUITARRA 1

    D#         F#     B        C#
e|-------------------------------------|
B|-------------------------------------|
G|-88888888----------44444444-66666666-|
D|-88888888-44444444-44444444-66666666-|
A|-66666666-44444444-22222222-44444444-|
E|----------22222222-------------------|

 GUITARRA 2
e|-6-6-6-6---8-8-8-8--6-6-6-6--8-8-8-8--9-8-6----|
B|--7-7-7-7---9-9-9-9--7-7-7-7--9-9-9-9-------9-7|
G|-----------------------------------------------|
D|-----------------------------------------------|
A|-----------------------------------------------|
E|-----------------------------------------------|

   F#
e|-----|
B|-----|
G|-----|
D|-4~~-|
A|-4~~-|
E|-2~~-|

########   #######     ###     #######
##     ## ##     ##   ## ##   ##     ##
##     ##        ##  ##   ##  ##
##     ##  #######  ##     ## ########
##     ## ##        ######### ##     ##
##     ## ##        ##     ## ##     ##
########  ######### ##     ##  #######
    PUERTO LA CRUZ --- VENEZUELA
########   #######   ######  ##    ##  ######  ####
##     ## ##     ## ##    ## ##   ##  ##    ## ####
##     ## ##     ## ##       ##  ##   ##       ####
########  ##     ## ##       #####     ######   ##
##   ##   ##     ## ##       ##  ##         ##
##    ##  ##     ## ##    ## ##   ##  ##    ## ####
##     ##  #######   ######  ##    ##  ######  ####
PI

CUALQUIER DUDA O SUGERENCIA MI MAIL ES HARD248@
SALUDOS GENTE!!!
Suggest correction
Creating personal tab
Creating personal tab
You can edit any tab online and save it as your Personal.

You can edit, replace or remove any tab part or add personal notes – all changes will be seen only by you.

Personal tabs can be accessed anytime from any device, even offline.
Learn more »
Give kudos to tab author, rate the tab!
1 2 3 4 5
comments
print report bad tab
guest
Wanna post a correction for this tab? Suggest correction