Oops, an error
Loading. Please wait.

Hasta El Final Tab

version 1
version 1

Whole song

Interactive

17,193 views 15 this week
1 commentread comment
1 2 3 4 5
excellent!
x 4
add to favorites
launch autoscroll
font size
0
reset
how to read this tab
guitar tuner
Tab Pro tools
  • play this tab
  • loop segment
  • change instrument
  • show fretboard
  • metronome
×
Best way to learn
"Hasta El Final"
Autoscroll
slow
fast
+/-
esc
set tempo
stop
Contributor
Difficulty
intermediate
Banda: PXNDX
Album: Para Ti Con Desprecio
Autor: José Madero


Esta canción esta padrisima y muy facil de tocar...Eso Si Afinen Bien Su Guitarra en 
Tono Abajo (Eb)en esta cancion si se necesitara esa afinación.

Esta Rola Ya la Hice en el Guitar Pro y prox.estara publicada...pero
la transcribi a texto para los que no cuentan con ese programa.


Bueno Estos Son Los Power Chords Usados En la Rola:

   A#5   D5    G5    D#5    F5
e|------------------------------|
B|------------------------------|
G|--4-----8---------------------|
D|--4-----8-----6-----2-----4---|
A|--2-----6-----6-----2-----4---|
E|--------------4-----0-----2---|


Ok...Aki Les Va La Tab---->


Intro:   A#5(x4**) - D5(x4**) - G5(x4**) - D#5(x2**) - F5(x2**)

         **La Progresion De Notas del Intro Toquenla Dos Veces...
        (El Numero dentro del parentecís es el numero de rasgueos
         que deben de aplicar...escuchen bien la rola para agarrar
         el Ritmo).


d#|--------------------|  X3
A#|------12--11--11----|
F#|--11----------------|
C#|--------------------|
G#|--------------------|
D#|--------------------|

d#|--11--9------9----------|
A#|---------12-----12--11--|
F#|------------------------|
C#|------------------------|
G#|------------------------|
D#|------------------------|

Verso:

A#5               D5
Te pido por favor guardar silencio amor
G5                D#5  F5
me desconcentrare a la primera
A#                D5
te pido por favor la simple aceptacion
G5                  D#5    F5
de que no fuiste tú la más sincera

A#5           D5
Facil yo pude haber muerto
G5         D#5  F5
junto a ti a la primera
A#5           D5
y en tu tumba debe decir
G5               D#5    F5       D#5(se sostiene esta nota un momento)
que nunca fuiste la mas sincera  ah..


Pre-coro:

A#5               D5
Te pido por favor recuerdes siempre amor
G5                 D#5          F5
que yo aqui estare siempre que quieras
A#5                      D5
lo que tendras que hacer solo resucitar
G5              D#5     F5          D#5(se sostiene esta nota un momento
pues yo termine siempre recuerda  ahh    hasta que Pepe diha Hasta el..)


Coro:

           A#5                 F5
Hasta el final conmigo vas a estar
                G5
conmigo vas a estar
                   D#5      F5
recuerda que todo lo sigues siempre hasta
     A#5                 F5                  G5
el final conmigo vas a estar conmigo vas a estar
                D#5  F5
promesas son prome..sas

(En El Coro va un un punteo que va así, este punteo va más lento que el intro,oigan bien 
rola...)


d#|-----------------------------------------------------|
A#|----12----11----12----11----12----14----14---12---11-|
F#|-11----11----11----11----11----11----11--------------|  X2
C#|-----------------------------------------------------|
G#|-----------------------------------------------------|
D#|-----------------------------------------------------|

Break: (Tocar El Intro)

Verso:

A#5                 D5
Te pido ya a tachar en tu agenda
G5                 D#5  F5
pues ya no estaras para cumplirla
A#5               D5
pero tu estaras aqui junto a mi
G5                    D#5      F5
si no es por voluntad sera por fuerza

Pre-Coro:

A#5           D5
Facil yo pude haber muerto
G5         D#5  F5
junto a ti a la primera
A#5           D5
y en tu tumba debe decir
G5              D#5     F5          D#5   (se sostiene esta nota un momento
pues yo termine siempre recuerda...ahh.    hasta que Pepe diha Hasta el..)


Coro:

           A#5                 F5
Hasta el final conmigo vas a estar
                G5
conmigo vas a estar
                   D#5      F5
recuerda que todo lo sigues siempre hasta
     A#5                 F5                  G5
el final conmigo vas a estar conmigo vas a estar
                D#5  F5
promesas son prome..sas

(Básicamente el punteo es el mismo al coro anterior pero en la segunda ves termina diferente...)

d#|-----------------------------------------------------|
A#|----12----11----12----11----12----14----14---12---11-|
F#|-11----11----11----11----11----11----11--------------|
C#|-----------------------------------------------------|
G#|-----------------------------------------------------|
D#|-----------------------------------------------------|

d#|---------------------------------------------------------|
A#|----12----11----12----11----12----14----14---12---11-----|
F#|-11----11----11----11----11----11----11---------------13-|
C#|------------------------------------------------------13-|
G#|---------------------------------------------------------|
D#|---------------------------------------------------------|


Puente:

G5                    D#5
No tienes una idea de la soledad
              A#5
pues ya estas con alguien mas
    F5
el tiempo te va a enseñar
G5                        D#5
Yo siempre fui el mejor para perdonar
        A#5
y ahora ya no es igual
    F5
contigo batallo...

(Regresa)
G5                    D#5
No tienes una idea de la soledad
              A#5
pues ya estas con alguien mas
    F5
el tiempo te va a enseñar
G5                        D#5
Yo siempre fui el mejor para perdonar
        A#5
y ahora ya no es igual
    F5                 G5(Toquen esta nota con Palm Mute, escuchen bien
contigo batallo...        la rola, esta nota se alarga antes de entrar al
                          Outro)

OUTRO:

Toquen La misma Progresion de Notas del Intro X4 :

      A#5(x4**) - D5(x4**) - G5(x4**) - D#5(x2**) - F5(x2**)

Pero El Solo ahora es diferente , y se toca de esta Forma X4 ---->


d#|-----------------------|
A#|----12----11----12-----|
F#|-11----11----11----11--|  X3
C#|-----------------------|
G#|-----------------------|
D#|-----------------------|

d#|-11--9------9-----------------|
A#|--------12-----12--11---------|
F#|-----------------------13--11-|
C#|------------------------------|
G#|------------------------------|
D#|------------------------------|
comments
print report bad tab
1 comment total.
+2 reply
[max105] wrote on July 26 2009, 03:53 pm

pues la tablatura stubo muy buena pero seria mejor si en vez d poner los powerc ubieras puesto toda la tablatura...pero d ai sta bnbnbnbn chida

I want to post or [tab]
guest
You may want to rate the tab now too:
select rating
Please do not post tabs as comments. Select "correction" instead!