Oops, an error
Loading. Please wait.

Los Malaventurados No Lloran Bass Tab

version 1
version 1

Whole song

Interactive

35,324 views 45 this week
4 commentsread comments
1 2 3 4 5
x 14
add to favorites
launch autoscroll
font size
0
reset
guitar tuner
Autoscroll
slow
fast
+/-
esc
set tempo
stop
Help us to improve Ultimate-Guitar.com Take our survey!
×
Difficulty
intermediate
PXNDX
Los malaventurados no lloran
La cuarta cuerda afinenla en D (Re)

[Intro]
G|-----------------|-----------------|-----------------|-----------------|
D|-----------------|---5-3----5-3----|-----------------|---3-5-6---1-3-2-|
A|---3-1----3-1----|-6-----6-6-----6-|---1-3----1-3----|-3-------1-------|
D|-6-----6-6-----6-|-----------------|-5-----5-5-----5-|-----------------|

[Verse 1]
G|-----------------|----------------|----------------|-----------------|
D|-----------------|---5-3----5-3---|----------------|---3-5-6---1-3-2-|
A|---3-1----3-1----|-6-----6-6-----6|---1-3----1-3---|-3-------1-------|
D|-6-----6-6-----6-|----------------|-5-----5-5-----5|-----------------|

G|-----------------|----------------|-----------------|-----------------|
D|-----------------|---5-3----5-3---|-----------------|---3-5-6---1-3-2-|
A|---3-1----3-1----|-6-----6-6-----6|---1-3----1-3----|-3-------1-------|
D|-6-----6-6-----6-|----------------|-5-----5-5-----5-|-----------------|

[Pre-chorus]
G|---------------------------------|---------------------------------|
D|---------------------------------|---------------------------------|
A|---------------------------------|-(6)-(6)-(6)-(6)-(6)-(6)-(6)-(6)-|
D|-(6)-(6)-(6)-(6)-(6)-(6)-(6)-(6)-|---------------------------------|

G|---------------------------------|---------------------------------|
D|---------------------------------|---------------------------------|
A|---------------------------------|-(3)-(3)-(3)-(3)/(1)-(1)-(1)-(1)-|
D|-(5)-(5)-(5)-(5)-(5)-(5)-(5)-(5)-|---------------------------------|

[Chorus]
G|-----------------|----------------|----------------|-----------------|
D|-----------------|---5-3----5-3---|----------------|---3-5-6---1-3-2-|
A|---3-1----3-1----|-6-----6-6-----6|---1-3----1-3---|-3-------1-------|
D|-6-----6-6-----6-|----------------|-5-----5-5-----5|-----------------|

[Instrumental]
G|-----------------|----------------|-----------------|-----------------|
D|-----------------|---5-3----5-3---|-----------------|---3-5-6---1-3-2-|
A|---3-1----3-1----|-6-----6-6-----6|---1-3----1-3----|-3-------1-------|
D|-6-----6-6-----6-|----------------|-5-----5-5-----5-|-----------------|

[Verse 2]
G|-----------------|----------------|-----------------|-----------------|
D|-----------------|---5-3----5-3---|-----------------|---3-5-6---1-3-2-|
A|---3-1----3-1----|-6-----6-6-----6|---1-3----1-3----|-3-------1-------|
D|-6-----6-6-----6-|----------------|-5-----5-5-----5-|-----------------|

G|-----------------|----------------|-----------------|-----------------|
D|-----------------|---5-3----5-3---|-----------------|---3-5-6---1-3-2-|
A|---3-1----3-1----|-6-----6-6-----6|---1-3----1-3----|-3-------1-------|
D|-6-----6-6-----6-|----------------|-5-----5-5-----5-|-----------------|

[Pre-chorus]
G|---------------------------------|---------------------------------|
D|---------------------------------|---------------------------------|
A|---------------------------------|-(6)-(6)-(6)-(6)-(6)-(6)-(6)-(6)-|
D|-(6)-(6)-(6)-(6)-(6)-(6)-(6)-(6)-|---------------------------------|

G|---------------------------------|---------------------------------|
D|---------------------------------|---------------------------------|
A|---------------------------------|-(3)-(3)-(3)-(3)/(1)-(1)-(1)-(1)-|
D|-(5)-(5)-(5)-(5)-(5)-(5)-(5)-(5)-|---------------------------------|

[Chorus]
G|-----------------|----------------|----------------|-----------------|
D|-----------------|---5-3----5-3---|----------------|---3-5-6---1-3-2-|
A|---3-1----3-1----|-6-----6-6-----6|---1-3----1-3---|-3-------1-------|
D|-6-----6-6-----6-|----------------|-5-----5-5-----5|-----------------|

[Verse 3]
G|-----------------------|-----------------------|-----------------------|-----------------------|
D|-----------------------|-----------------------|-----------------------|-----------------------|
A|-----------------------|-----------------------|-----------------------|-1-1-1-1-1-1-1-1-1-1-1-|
D|-6-6-6-6-6-6-6-6-6-6-6-|-1-1-1-1-1-1-1-1-1-1-1-|-3-3-3-3-3-3-3-3-3-3-3-|-----------------------|

G|-----------------------|-----------------------|-----------------------|-----------------------|
D|-----------------------|-----------------------|-----------------------|-----------------------|
A|-----------------------|-----------------------|-----------------------|-3-3-3-3-1-1-1-1-1-1-1-|
D|-6-6-6-6-6-6-6-6-6-6-6-|-1-1-1-1-1-1-1-1-1-1-1-|-3-3-3-3-3-3-3-3-3-3-3-|-----------------------|

[Instrumental]
G|-----------------|-----------------|------------------|---------------------------------|
D|-----------------|-----------------|------------------|---------------------------------|
A|-----------------|-----------------|------------------|-3-3-3-3-3-3-3-3-1-1-1-1-1-1-1-1-|
D|-666666666666666-|-111111111111111-|-5555555555555555-|---------------------------------|

G|-----------------|-----------------|------------------|------------------|
D|-----------------|-----------------|------------------|------------------|
A|-----------------|-----------------|------------------|-3333333311111111-|
D|-666666666666666-|-111111111111111-|-5555555555555555-|------------------|

[Interlude]
G|-----------------|-----------------|-----------------|----------------|
D|-----------------|----5533---5533--|-----------------|----3356---1132-|
A|----3311---3311--|-666----666----6-|----1133---1133--|-333----111-----|
D|-666----666----6-|-----------------|-555----555----5-|----------------|

G|----------|----------|----------|----------|
D|----------|----------|----------|----------|
A|----------|----------|----------|-33331111-|
D|-66666666-|-11111111-|-55555555-|----------|

[Chorus]
G|--------------|--------------|--------------|-------------|
D|--------------|--------------|--------------|-------------|
A|--------------|--------------|--------------|-3-333-1-111-|
D|-6-66-66-66-6-|-1-11-11-11-1-|-5-55-55-55-5-|-------------|

G|---------------|-----------|
D|---------------|-----------|
A|---------------|-----------|
D|-666-6666-666--|-1-11-1-11-|


************************************

| (n)  Ghost note

************************************
Suggest correction
comments
print report bad tab
4 comments total. Showing first comments.
0 reply
HateFizt 73 May 28, 2007 05:19 PM

Y aunque tu tablatura es perfecta, tu actitud de mentarsela a los diferentes a ti, no lo es, así que, sorry, 1 star.

0 reply
Tabuco 10 Jul 15, 2007 05:37 PM

Tablature = Perect
You = Sucks
1 star

0 reply
JacoBass 10 Jan 24, 2009 05:01 PM

Esta buena, que gente tan pendeja que pone 1 sola estrella, nadie esta calificando la actitud, estan calificando la tablatura idiotas!
muy buena tab

guest
You may want to rate the tab now too:
select rating
Wanna post a correction for this tab? Suggest correction