Oops, an error
Loading. Please wait.

Los Malaventurados No Lloran Bass Tab

version 1
version 1

Whole song

Interactive

33,252 views 54 this week
4 commentsread comments
1 2 3 4 5
accurate
x 13
add to favorites
launch autoscroll
font size
0
reset
guitar tuner
Tab Pro tools
  • play this tab
  • loop segment
  • change instrument
  • show fretboard
  • metronome
Autoscroll
slow
fast
+/-
esc
set tempo
stop
Difficulty
intermediate
PXNDX
Los malaventurados no lloran
La cuarta cuerda afinenla en D (Re)

Intro
G |----------------|----------------|----------------|-----------------|
D |----------------|---5-3----5-3---|----------------|---3-5-6---1-3-2-|
A |---3-1----3-1---|-6-----66-----6-|---1-3----1-3---|-3-------1-------|
D |-6-----66-----6-|----------------|-5-----55-----5-|-----------------|

Verso 1
G |----------------|----------------|----------------|-----------------|
D |----------------|---5-3----5-3---|----------------|---3-5-6---1-3-2-|
A |---3-1----3-1---|-6-----66-----6-|---1-3----1-3---|-3-------1-------|
D |-6-----66-----6-|----------------|-5-----55-----5-|-----------------|

G |----------------|----------------|----------------|-----------------|
D |----------------|---5-3----5-3---|----------------|---3-5-6---1-3-2-|
A |---3-1----3-1---|-6-----66-----6-|---1-3----1-3---|-3-------1-------|
D |-6-----66-----6-|----------------|-5-----55-----5-|-----------------|

Pre-coro
G |--------------------------|--------------------------|
D |--------------------------|--------------------------|
A |--------------------------|-(6)(6)(6)(6)(6)(6)(6)(6)-|
D |-(6)(6)(6)(6)(6)(6)(6)(6)-|--------------------------|

G |--------------------------|---------------------------|
D |--------------------------|---------------------------|
A |--------------------------|-(3)(3)(3)(3)/(1)(1)(1)(1)-|
D |-(5)(5)(5)(5)(5)(5)(5)(5)-|---------------------------|

Coro
G |----------------|----------------|----------------|-----------------|
D |----------------|---5-3----5-3---|----------------|---3-5-6---1-3-2-|
A |---3-1----3-1---|-6-----66-----6-|---1-3----1-3---|-3-------1-------|
D |-6-----66-----6-|----------------|-5-----55-----5-|-----------------|

Continuación
G |----------------|----------------|----------------|-----------------|
D |----------------|---5-3----5-3---|----------------|---3-5-6---1-3-2-|
A |---3-1----3-1---|-6-----66-----6-|---1-3----1-3---|-3-------1-------|
D |-6-----66-----6-|----------------|-5-----55-----5-|-----------------|

Verso 2
G |----------------|----------------|----------------|-----------------|
D |----------------|---5-3----5-3---|----------------|---3-5-6---1-3-2-|
A |---3-1----3-1---|-6-----66-----6-|---1-3----1-3---|-3-------1-------|
D |-6-----66-----6-|----------------|-5-----55-----5-|-----------------|

G |----------------|----------------|----------------|-----------------|
D |----------------|---5-3----5-3---|----------------|---3-5-6---1-3-2-|
A |---3-1----3-1---|-6-----66-----6-|---1-3----1-3---|-3-------1-------|
D |-6-----66-----6-|----------------|-5-----55-----5-|-----------------|

Pre-coro
G |--------------------------|--------------------------|
D |--------------------------|--------------------------|
A |--------------------------|-(6)(6)(6)(6)(6)(6)(6)(6)-|
D |-(6)(6)(6)(6)(6)(6)(6)(6)-|--------------------------|

G |--------------------------|---------------------------|
D |--------------------------|---------------------------|
A |--------------------------|-(3)(3)(3)(3)/(1)(1)(1)(1)-|
D |-(5)(5)(5)(5)(5)(5)(5)(5)-|---------------------------|

Coro
G |----------------|----------------|----------------|-----------------|
D |----------------|---5-3----5-3---|----------------|---3-5-6---1-3-2-|
A |---3-1----3-1---|-6-----66-----6-|---1-3----1-3---|-3-------1-------|
D |-6-----66-----6-|----------------|-5-----55-----5-|-----------------|

Verso 3
G |---------------|---------------|---------------|---------------|
D |---------------|---------------|---------------|---------------|
A |---------------|---------------|---------------|-111-11111-111-|
D |-666-66666-666-|-111-11111-111-|-333-33333-333-|---------------|

G |----------------|----------------|----------------|----------------|
D |----------------|----------------|----------------|----------------|
A |----------------|----------------|----------------|-333-3-1111-111-|
D |-666-6-6666-666-|-111-1-1111-111-|-333-3-3333-333-|----------------|

Continuación
G |-----------------|-----------------|------------------|------------------|
D |-----------------|-----------------|------------------|------------------|
A |-----------------|-----------------|------------------|-3333333311111111-|
D |-666666666666666-|-111111111111111-|-5555555555555555-|------------------|

G |-----------------|-----------------|------------------|------------------|
D |-----------------|-----------------|------------------|------------------|
A |-----------------|-----------------|------------------|-3333333311111111-|
D |-666666666666666-|-111111111111111-|-5555555555555555-|------------------|

Interludio
G |-----------------|-----------------|-----------------|----------------|
D |-----------------|----5533---5533--|-----------------|----3356---1132-|
A |----3311---3311--|-666----666----6-|----1133---1133--|-333----111-----|
D |-666----666----6-|-----------------|-555----555----5-|----------------|

G |----------|----------|----------|----------|
D |----------|----------|----------|----------|
A |----------|----------|----------|-33331111-|
D |-66666666-|-11111111-|-55555555-|----------|

Coro
G |--------------|--------------|--------------|-------------|
D |--------------|--------------|--------------|-------------|
A |--------------|--------------|--------------|-3-333-1-111-|
D |-6-66-66-66-6-|-1-11-11-11-1-|-5-55-55-55-5-|-------------|

G |---------------|-----------|
D |---------------|-----------|
A |---------------|-----------|
D |-666-6666-666--|-1-11-1-11-|

Nota:
Ésta tab está 100% completa y correcta
Que chinguen a su madre a los que no les guste panda
Dudas, comentarios, bromas ó alguna idiotés que se les ocurra a:
david019pxndx@yahoo.com.mx 
¡Ahí se ven!
comments
print report bad tab
4 comments total. Showing first comments.
0 reply
HateFizt wrote on May 28 2007, 05:19 pm

Y aunque tu tablatura es perfecta, tu actitud de mentarsela a los diferentes a ti, no lo es, así que, sorry, 1 star.

0 reply
Tabuco wrote on July 15 2007, 05:37 pm

Tablature = Perect
You = Sucks
1 star

0 reply
JacoBass wrote on January 24 2009, 05:01 pm

Esta buena, que gente tan pendeja que pone 1 sola estrella, nadie esta calificando la actitud, estan calificando la tablatura idiotas!
muy buena tab

I want to post or [tab]
guest
You may want to rate the tab now too:
select rating
Please do not post tabs as comments. Select "correction" instead!