Oops, an error
Loading. Please wait.

Los Malaventurados No Lloran tab

version 4
version 4
by Panda
3,213 views 1 this week
no commentswrite comment
1 2 3 4 5
3 more votes to show rating
add to favorites
×
Save as Personal and add changes to this tab that will be seen only by you. Learn more ›
×
You can save this tab as Personal to edit and correct it or add notes. All changes will be seen only by you. Learn more »
launch autoscroll
font size
0
reset
how to read this tab
guitar tuner
backing track
0:00
0:00
edit
Autoscroll
slow
fast
+/-
esc
set tempo
stop
Difficulty
intermediate
Para los qe no tienen el Guitar-pro :)

Hum.. creo qe la guitarra de arturo suena diferente por el wah-wah, porqe hasta donde 
las liras estan afinadas standard.

Intro (Arturo)
E|-------------------------------11-----------------|
B|--0----------------------------12-----------------|
G|--2--------------1------------ 13-----------------|
D|--2--------------2-------------13-----------------|
A|--0--------------2-------------11-----------------|
E|--------------------------------------------------|

E|----------------------------------------------------|
B|--5---------------5----------4--------------4-------|
G|-------6--------------------------4-----------------|
D|-------------6-------------------------4------------|
A|----------------------------------------------------|
E|----------------------------------------------------|

E|----------------------------------------------------|
B|----------------------------------------------------|
G|-------------------------------------9--------------|
D|----------6------------------------------9----------|
A|------7---------7--------------9------------9-------|
E|--5-----------------7-------7-----------------------|

E|----4---------------------------------------------|
B|----4--------5------------5-----------------------|
G|----4------------6--------------------------------|
D|----6----------------6----------------------------|
A|----6---------------------------------------------|
E|----4---------------------------------------------|

E|-----------------------------------5---------------------------------------|
B|---4---------------4-------------------5--------------------9--------------|
G|--------4-----------------------------------6-------------------9----------|
D|--------------4------------------------------------------9----------9------|
A|-------------------------------7---------------------7---------------------|
E|---------------------------5-----------------------------------------------|

E|----4---------------------------------------------------------|
B|----4--------5------------5--------4--------------4-----------|
G|----4------------6----------------------4---------------------|
D|----6----------------6------------------------4---------------|
A|----6---------------------------------------------------------|
E|----4---------------------------------------------------------|

preCoro/coro (Arturo & pepe) (dos veces
E|--------------------------------------------------------------------------|
B|--------------------------------------------------------------------------|
G|-----------------------------------------9--9--9---9---9--9--9--9--9------|
D|--7---7---7---7---7---7---7---7--7-------9--9--9---9---9--9--9--9--9------|
A|--7---7---7---7---7---7---7---7--7-------7--7--7---7---7--7--7--7--7------|
E|--5---5---5---5---5---5---5---5--5----------------------------------------|

E|---------------------------------------------------------------------|
B|---------------------------------------------------------------------|
G|---------------------------------6--6--6--6--6--6--6--6--6-----------|
D|---6--6--6--6--6--6--6--6--6-----6--6--6--6--6--6--6--6--6-----------|
A|---6--6--6--6--6--6--6--6--6-----4--4--4--4--4--4--4--4--4-----------|
E|---4--4--4--4--4--4--4--4--4-----------------------------------------|

E|---------------------------0----|
B|---------------------------2----|
G|--4----4--4--4--4--4-------2----|   Se repite 2 veces
D|--4----4--4--4--4--4-------2----|
A|--2----2--2--2--2--2-------0----|
E|--------------------------------|


Se repite el intro y El coro.

Me deberia de acordar.....

E|------------------------------------------------------------------|
B|------------------------------------------------------------------|
G|------------------------------------------------------------------|
D|------------7-------------7----7--7--7--------7--7--7--------7----|
A|------------7-------------7----7--7--7--------7--7--7--------7----|
E|---5---5---5----5---5---5----5--5--5----5---5--5--5----5-----5----|

E|---------------------------------------------------------------------|
B|---------------------------------------------------------------------|
G|---------------------------------------------------------------------|
D|--------2--------------2---2----2--------2---2--2-------2---2--2-----|
A|--------2--------------2---2----2--------2---2--2-------2---2--2-----|
E|--0--0--0----0---0----0---0----0---0----0--0--0---0---0--0---0-------|

E|---------------------------------------------------------------------|
B|---------------------------------------------------------------------|
G|---------------------------------------------------------------------|
D|-----------4-----------4---4---4--------4---4---4------4--4--4-------|
A|-----------4-----------4---4---4--------4---4---4------4--4--4-------|
E|--2---2---2---2---2---2---2---2---2---2---2---2---2--2--2--2---------|

E|-------------------------------------------------------------------|
B|-------------------------------------------------------------------|
G|-------------------------------------------------------------------|
D|----------9-----------9---9---9-------9-----9--9--9--------9--9--9-|
A|----------9-----------9---9---9-------9-----9--9--9--------9--9--9-|
E|--7---7--7---7---7---7---7---7---7---7----7--7--7----7-----7--7--7-|


E|-------------------------------------------------------------------|
B|-------------------------------------------------------------------|
G|-------------------------------------------------------------------|
D|-----------11--------11--11-----9-----------9---9--9------9--9--9--|
A|-----------11--------11--11-----9-----------9---9--9------9--9--9--|
E|-9----9----9--9--9---9---9------7------7---7---7--7---7---7--7--7--|

Solo (pepe) x2

E|------------------------------------------------------------------|
B|------------------------------------------------------------------|
G|------------------------------------------------------------------|
D|----------6-----7----9-------13------11----13---14---13---14---13-|
A|-0--4----7--------------------------------------------------------|
E|------------------------------------------------------------------|

"Se que esta en algun lugar mejor donde no hay abuso fuera de este mundo" (sin guitarra)


"Quiero encontrar el medio para yo...."
E|-------------------------------------------------------|
B|-------------------------------------------------------|
G|-------------------------------------------------------|
D|---------------------------------2--2--2--2--2--2------|
A|--7---7---7---7---7--7---7-------2--2--2--2--2--2------|
E|--5---5---5---5---5--5---5-------0--0--0--0--0--0------|

E|-------------------------------------------------------------|
B|-------------------------------------------------------------|
G|-------------------------------------------------------------|
D|----------------------------6--6--6--6--6--6--6--------------|
A|--6--6--6--6--6--6--6--6----4--4--4--4--4--4--4--------------|
E|--4--4--4--4--4--4--4--4-------------------------------------|

Coro Final
(es el mismo del principio)

...mi vida desvanece mas... cuando termina esa frase empieza esto:

E|--------------------------------------------------------------------------|
B|--------------------------------------------------------------------------|
G|--------------------------------------------------------------------------|
D|------------7-------------7----7--7----------7--7--7--------7--7--7-------|
A|------------7-------------7----7--7----------7--7--7--------7--7--7-------|
E|---5---5---5----5---5---5----5--5----5-----5--5--5----5---5--5--5---------|

E|------------------------------------------|
B|------------------------------------------|
G|------------------------------------------|
D|--------2--------------2---2----2---------|
A|--------2--------------2---2----2---------|
E|---0--0--0----0---0----0---0----0---------|

            
            
Suggest correction
Creating personal tab
Creating personal tab
You can edit any tab online and save it as your Personal.

You can edit, replace or remove any tab part or add personal notes – all changes will be seen only by you.

Personal tabs can be accessed anytime from any device, even offline.
Learn more »
Give kudos to tab author, rate the tab!
1 2 3 4 5
comments
print report bad tab
guest
Wanna post a correction for this tab? Suggest correction