Oops, an error
Loading. Please wait.

Narcisista Por Excelencia tab

version 1
by Panda
10,499 views 3 this week
5 commentsread comments
1 2 3 4 5
x 5
add to favorites
×
Save as Personal and add changes to this tab that will be seen only by you. Learn more ›
×
You can save this tab as Personal to edit and correct it or add notes. All changes will be seen only by you. Learn more »
launch autoscroll
font size
0
reset
how to read this tab
guitar tuner
edit
Autoscroll
slow
fast
+/-
esc
set tempo
stop
chekenla una rola bastante buena i no plagiada jaja XD eso espero
ai sta

INTRO
e|------------------------------------------------------------|
b|------------------------------------------------------------|
g|---------------------------77--88--7-88--77--88--7--88-77---|   x2
d|--55-3-55----55--3--55-----77--88--7-88--77--88--7--88-77---|
A|--55-3-55----55--3--55-----55--66--5-66--55--66--5--66-55---|
E|--33-1-33----33--1--33--------------------------------------|

(0:24)
e|-------------------------------------------------------------------|
b|-------------------------------------------------------------------|
g|---------7-88-----------88-----------------------------------------|   x4
d|---55----7-88---3-55----88-----------------------------------------|
A|---55----5-66---3-55----66-----------------------------------------|
E|---33---------  1-33-----------------------------------------------|


(0:35) = que el intro

precoro (0:47)
e|------------------------------------------------------------|
b|------------------------------------------------------------|
g|---55-7-8-10----10-12---------------------------------------|   x4
d|---55-7-8-10-88-10-12---------------------------------------|
A|---33-5-6-8--88-8--10---------------------------------------|
E|-------------66---------------------------------------------|

coro (01:07)
e|---------------------------------------------------------------------|
b|---------------------------------------------------------------------|
g|--------8888--------10101010---x2---8888--------10101010----------x2-|
d|---5555-8888--8888--10101010--------8888--8888--10101010--5555-------|
A|---5555-6666--8888---8-8-8-8--------6666--8888---8-8-8-8--5555-------|
E|---3333-------6666------------------------6666------------3333-------|

(01:31)puente = que el intro

vibrato (~)
verso (01:43)                              (2:05) le agregan esto al riff antes de que
de nuevo el coro
e|-------------------------------6--------------------------6-8-10~~~--|
b|--------------------------8 10---10-6~-------------------------------|
g|---8-8-7-8------7-8-8-7-8--------------------------------------------|
d|------------8-5~-----------------------------------------------------|
A|---------------------------------------------------------------------|
E|---------------------------------------------------------------------|


interlude (02:30)
piano y despues lo hace la guitarra
verso (01:43)
e|---------------------------------------------------------------------|
b|-------11~~-8~~--11~~-----terminando 11~~----------------------------|
g|---------------------10~~--------------------------------------------|
d|---------------------------------------------------------------------|
A|---------------------------------------------------------------------|
E|---------------------------------------------------------------------|


solo (02:58)                                         le agregan esto al riff
e|--------------------------------------------------------~~~------11 10-----|
b|----11--10-8-----8------------------------------------11~~- 10-8-------11--|
g|--------------10---7----terminando---8/10-8-7------------------------------|
d|---------------------------------------------------------------------------|
A|---------------------------------------------------------------------------|
E|---------------------------------------------------------------------------|


outro (03:21) = que el coro agregandole el solo


Suggest correction
Creating personal tab
Creating personal tab
You can edit any tab online and save it as your Personal.

You can edit, replace or remove any tab part or add personal notes – all changes will be seen only by you.

Personal tabs can be accessed anytime from any device, even offline.
Learn more »
comments
print report bad tab
5 comments total. Showing first comments.
0 reply
van182 10 Sep 18, 2006 06:43 PM

Oye bro k padre k t guste la rola .- oye we si puedes poner la tab d nuevo pero un poco mejor explicado el solo xq ps no le entiendo muy bn. oye esa cancion es solo para una guitarra o para 2?

0 reply
zamyzam 10 Oct 21, 2006 05:29 PM

no sirve tu tab

0 reply
try_to_hit_me 20 Nov 14, 2006 12:10 PM

creo que zamy tiene la razon es una mierda

guest
You may want to rate the tab now too:
select rating
Wanna post a correction for this tab? Suggest correction