Oops, an error
Loading. Please wait.

Narcisista Por Excelencia Tab

version 4
version 4

Whole song

Interactive

27,725 views 1 this week
3 commentsread comments
1 2 3 4 5
x 10
add to favorites
launch autoscroll
font size
0
reset
how to read this tab
guitar tuner
Autoscroll
slow
fast
+/-
esc
set tempo
stop
Help us to improve Ultimate-Guitar.com Take our survey!
×
Author
Difficulty
intermediate
----------------------------------------------------------------------
                             Narcisista Por Excelencia - Panda
----------------------------------------------------------------------
Tabbed by:Panda-Spirit
Email:

Tuning: Half-Step (Eb-Ab-Db-Gb-Bb-eb)



Intro  
                                                      (x2)
eb|--------------|-------------|------------|------------|
Bb|--------------|-------------|------------|------------|
Gb|--------------|-------------|------------|------------|
Db|--------------|-------------|------------|------------| 
Ab|------------6-|-----------6-|-7--7--7--6-|-7--7--7--6-|
Eb|-4--4--2--4---|4--4--2--4---|------7-----|------7-----|
PM: .  .  .  . .  .  .  .  . .   .  . ..  .   .  . ..  .

Intro Cont…
                                                           (x4)
eb/--------------|--------------|--------------|--------------|
Bb/--------------|--------------|--------------|--------------|
Gb/-------------8|-------------8|-9--9-----8—-8|-9--9-----9—8-|
Db/-6--6--4--6—-8|-6--6--4--6—-8|-9--9--9--9—-8|-9--9--9--9—8-| 
Ab/-6--6--4--6—-6|-6--6--4--6—-6|-7--7--9--7—-6|-7--7--9--7—6-|
Eb/-4--4--2--4---|-4--4--2--4---|-------7------|-------7------|

Verso 1

eb|------|--------|--------|------|----------------|
Bb|------|--------|--------|------|----------------|
Gb|------|-8--9—9-|--------|--9---|-----8h9--------|
Db|-6--6-|-8--9—9-|-4--6—6-|--9---|-4h6-8h9-6h4----|
Ab|-6--6-|-6--7—7-|-4--6—6-|--7---|-4h6-6h7-6h4----|
Eb|-4--4-|--------|-2--4—4-|------|-2h4-----4h2----|

Verso 2
         (x4)             (x4)
eb|---------|    |-----------|
Bb|---------|    |-----------|
Gb|---------|    |-8—9-9-9---|
Db|-4—6—6—6-|    |-8—9-9-9---|
Ab|-4—6—6—6-|    |-6—7-7-7---|
Eb|-2—4—4—4-|    |-----------|


Pre-Coro
                                 (x3)
eb/---------------------------------|
Bb/---------------------------------|
Gb/--6—6—6-8-9999--11-----11--11h13-|
Db/--6—6—6-8-9999--11--9--11--11h13-|
Ab/--4—4—4-6-7777--9---9--9---9h11--|
Eb/--------------------7------------|


eb|---------------------|
Bb|---------------------|
Gb|--6-6-6-8-9----------|
Db|--6-6-6-8-9---4-4----|
Ab|--4-4-4-6-7---4-4----|
Eb|--------------2-2----|


Coro

Eb|----------------------------|
Bb|----------------------------|
Gb|---------999999----------11-|
Db|-666666--999999--999999--11-|
Ab|-666666--777777--999999--9--|
Eb|-444444----------777777-----|

Coro Cont…

eb|---------------------------------------|
bb|---------------------------------------|
eb|----------99999999-----------11--9—-8--|
Db|-6666666--99999999--9999999--11--9—-8--|
Ab|-6666666--77777777--9999999--9---7—-6--|
Eb|-4444444------------7777777------------|



Coro Cont…

eb|---------------------------------|--------------------------|
Bb|---------------------------------|--------------------------|
Gb|-99999------------11-11-11-------|-999999-------------------|
Db|-99999--99999999--11-11-11-66666-|-999999--99999--444444444-|
Ab|-77777--99999999--9--9--9--66666-|-777777--99999--444444444-|
Eb|--------77777777-----------44444-|---------77777--222222222-|



Intro (x1)

Verso 2
eb|----------------------------------|
Bb|-5-5-5-4-4-4--0--0----------------|
Gb|-------------------1-1-1-1-1-1-1-1|
Db|----------------------------------|
Ab|----------------------------------|
Eb|----------------------------------| \
                                          (x3)
eb|--------------4-4-6-6-6-7-7-7-6-6-| /
Bb|--5-5-5-4-4-4---------------------|
Gb|----------------------------------|
Db|----------------------------------|
Ab|----------------------------------|
Eb|----------------------------------|
                                               
eb|--------------------4-4-6-6-6-7-7-7-9-11—11b---|
Bb|-5-5-5-4-4-4-4---------------------------------|
Gb|-----------------------------------------------|
Db|-----------------------------------------------|
Ab|-----------------------------------------------|
Eb|-----------------------------------------------|

Pre-coro y Coro (x1)

**Interlude**
                                  (x2)
eb|------------------------------------|
Bb|--12~--9~---12~------12~--9~--12~---|
Gb|-----------------11~----------------|
Db|------------------------------------|
Ab|------------------------------------|
Eb|------------------------------------|


                         **Solo**

                                       (x3)  
eb|-12-12-12-12-12-12-12-|----------------|
Bb|-12-12-12-12-12-12-12—|12-11-9----9----|
Gb|----------------------|--------11---8~-|
Db|----------------------|----------------|
Ab|----------------------|----------------|
Eb|----------------------|----------------|
                                   (x2) 
eb|-----------------------------------|
Bb|-12-11-9-----9---------------------|
Gb|---------11----8~----9-11-9-8-9-8--|
Db|-----------------------------------| 
Ab|-----------------------------------|
Eb|-----------------------------------|

eb|--------------12-11----|-------------12-11-12-14-12-11-|
Bb|-12-11-9----9-------12~|-12-11-9----9------------------|
Gb|---------11------------|---------11--------------------|
Db|-----------------------|-------------------------------|
Ab|-----------------------|-------------------------------|
Eb|-----------------------|-------------------------------|

eb|--------------12-11----|---------------------------------|
Bb|-12-11-9----9------12~-|-12-11-9---9---------------------|
Gb|---------11------------|---------11--11-9-8-9-8----------|
Db|-----------------------|------------------------11-9-8---|
Ab|-----------------------|-------------------------------9~|
Eb|-----------------------|---------------------------------|
 
**Solo con Coro**                     


| /  slide up
| \  slide down
| h  hammer-on
| p  pull-off
| ~  vibrato
| +  harmonic
| x  Mute note
==============================================================
Suggest correction
comments
print report bad tab
3 comments total.
+1 reply
svr 71 Oct 22, 2007 11:15 PM

pretty nice tab you have onl one mistake in the intro its double 6

+1 reply
maybenot999 10 Feb 01, 2008 08:22 PM

pretty cool good job

0 reply
TheOnlyRod 10 Aug 21, 2009 01:35 PM

Thx, cool tab

guest
You may want to rate the tab now too:
select rating
Wanna post a correction for this tab? Suggest correction