Oops, an error
Loading. Please wait.

Narcisista Por Excelencia Tab

version 4
version 4

Whole song

Interactive

by Panda
5,836 views 1 this week
1 commentread comment
1 2 3 4 5
x 7
add to favorites
×
Save as Personal and add changes to this tab that will be seen only by you. Learn more ›
×
You can save this tab as Personal to edit and correct it or add notes. All changes will be seen only by you. Learn more »
save as personal
new!
launch autoscroll
font size
0
reset
how to read this tab
guitar tuner
Autoscroll
slow
fast
+/-
esc
set tempo
stop
Intro:

E|----------------------------------------|
B|----------------------------------------|
G|----------------------------------------|
D|----------------------------------------|
A|----------------5--5---------------5--5-|
E|-3--3--1--3--3-------3--3--1--3--3------|


E|-------------------------------|
B|-------------------------------|
G|-------------------------------|
D|-------------------------------|
A|-6--6--6-6-5--5--6--6--6-6-5-5-|
E|------6---------------6--------|

E|----------------------------------------|
B|----------------------------------------|
G|----------------------------------------|
D|----------------------------------------|
A|----------------5--5---------------5--5-|
E|-3--3--1--3--3-------3--3--1--3--3------|


E|-------------------------------|
B|-------------------------------|
G|-------------------------------|
D|-------------------------------|
A|-6--6--6-6-5--5--6--6--6-6-5-5-|
E|------6---------------6--------|


Aquí va la guitarra con las quintas y la distorsión

E|------------------------------------------|
B|------------------------------------------|
G|----------------7--7-----------------7--7-|
D|-5--5--3--5--5--7--7--5--5--3--5--5--7--7-|
A|-5--5--3--5--5--5--5--5--5--3--5--5--5--5-|
E|-3--3--1--3--3--------3--3--1--3--3-------|


E|-------------------------------------|
B|-------------------------------------|
G|-8--8-----8-8-7--7--8--8-----8-8-7-7-|
D|-8--8--8--8-8-7--7--8--8--8--8-8-7-7-|
A|-6--6--8--6-6-5--5--6--6--8--6-6-5-5-|
E|-------6------------------6----------|

E|------------------------------------------|
B|------------------------------------------|
G|----------------7--7-----------------7--7-|
D|-5--5--3--5--5--7--7--5--5--3--5--5--7--7-|
A|-5--5--3--5--5--5--5--5--5--3--5--5--5--5-|
E|-3--3--1--3--3--------3--3--1--3--3-------|


E|-------------------------------------|
B|-------------------------------------|
G|-8--8-----8-8-7--7--8--8-----8-8-7-7-|
D|-8--8--8--8-8-7--7--8--8--8--8-8-7-7-|
A|-6--6--8--6-6-5--5--6--6--8--6-6-5-5-|
E|-------6------------------6----------|


"sabes que es la inseguridad, sabes lo que es sentir la soledad,
E|------------------------------------------------------------------|
B|------------------------------------------------------------------|
G|----------------------------7-8-----------------------------------|
D|--5-5-----------------------7-8-------------------------3---5-5---|
A|--5-5-----------------------5-6-------------------------3---5-5---|
E|--3-3---------------------------------------------------1---3-3---|

mi peor error fue haber aceptado mi fealdad"
E|------------------------------------------------|
B|------------------------------------------------|
G|----------------------------8-8-----------------|
D|----------------------------8-8------------17-5-|
A|----------------------------6-6------------17-5-|
E|-------------------------------------------15/3-|

por que ahora ya no tengo donde esconder el miedo
E|-----------------------------------------------|
B|-----------------------------------------------|
G|-----------------------------------------------|
D|--555555555555555555555--3-555555555555555555--|
A|--555555555555555555555--3-555555555555555555--|
E|--333333333333333333333--1-333333333333333333--|

y el miedo sigue vivo, se la vive aqui conmigo
E|--------------------------------------------|
B|--------------------------------------------|
G| 8888888888888888888888--7—-888888888888888-|
D|-8888888888888888888888—-7—-666666666666666-|
A|-6666666666666666666666—-5—-666666666666666-|
E|--------------------------------------------|

yo me baso en la apariencia, con placer y sin conciencia,
E|-----------------------------------------------------|
B|-----------------------------------------------------|
G|-----------------------------------------------------|
D|--555555555555555555555555--3-555555555555555555555--|
A|--555555555555555555555555--3-5555555555555555555555-|
E|--333333333333333333333333--1-3333333333333333333333-|


Esperando que algun dia tu atencion fijes
E|--------------------------------------------|
B|--------------------------------------------|
G| 8888888888888888888888--7—-888888888888888-|
D|-8888888888888888888888—-7—-666666666666666-|
A|-6666666666666666666666—-5—-666666666666666-|
E|--------------------------------------------|


    En mi es por eso             que ahora visto
E|---------------------------------------------------|
B|---------------------------------------------------|
G|--5-5-5---7-8--888--10-10-10-------10-10-12-12-----|
D|--5-5-5---7-8--888--10-10-10--888--10-10-12-12-----|
A|--3-3-3---5-6--666--8--8--8---888--8--8--10-10-----|
E|------------------------------666------------------|
   asi,        quiero ser elegante y estilero hasta el fin
E|---------------------------------------------------|
B|---------------------------------------------------|
G|--5-5-5---7-8--888--10-10-10-------10-10-12-12-----|
D|--5-5-5---7-8--888--10-10-10--888--10-10-12-12-----|
A|--3-3-3---5-6--666--8--8--8---888--8--8--10-10-----|
E|------------------------------666------------------|

no  poder proyectarlo,       me lo tengo que creer...
E|-------------------------------------------------------------|
B|-------------------------------------------------------------|
G|--5-5-5---7-8--888--10-10-10-------10-10-12-12---5-5-5-7-8---|
D|--5-5-5---7-8--888--10-10-10--888--10-10-12-12---5-5-5-7-8-8-|
A|--3-3-3---5-6--666--8--8--8---888--8--8--10-10---3-3-3-5-6-8-|
E|------------------------------666--------------------------6-|

CORO:

suponiendo que en la gente la belleza es natural
E|-----------------------------------------------|
B|-----------------------------------------------|
G|---------88888-----------1010101010------------|
D|-55555---88888---88888---1010101010------------|
A|-55555---66666---88888---8-8-8-8-8-------------|
E|-33333-----------66666-------------------------|

pues belleza es la palabra que aun no logro concretar
E|-----------------------------------------------|
B|-----------------------------------------------|
G|---------88888-----------1010101010------------|
D|-55555---88888---88888---1010101010------------|
A|-55555---66666---88888---8-8-8-8-8-------------|
E|-33333-----------66666-------------------------|


disfraz, disfraz, narcicista artificial,
E|-------------------------------------|
B|-------------------------------------|
G|-88888-----------1010101010----------|
D|-88888---88888---1010101010--55555---|
A|-66666---88888---8-8-8-8-8---55555---|
E|---------66666---------------33333---|

   disfraz, disfraz, todo es mental
E|-------------------------------------|
B|-------------------------------------|
G|-88888-----------1010101010----------|
D|-88888---88888---1010101010— 5-------|
A|-66666---88888---8-8-8-8-8---5-------|
E|---------66666---------------3-------|

Intermedio:

E|------------------------------------------|
B|------------------------------------------|
G|----------------7--7-----------------7--7-|
D|-5--5--3--5--5--7--7--5--5--3--5--5--7--7-|
A|-5--5--3--5--5--5--5--5--5--3--5--5--5--5-|
E|-3--3--1--3--3--------3--3--1--3--3-------|


E|-------------------------------------|
B|-------------------------------------|
G|-8--8-----8-8-7--7--8--8-----8-8-7-7-|
D|-8--8--8--8-8-7--7--8--8--8--8-8-7-7-|
A|-6--6--8--6-6-5--5--6--6--8--6-6-5-5-|
E|-------6------------------6----------|

E|------------------------------------------|
B|------------------------------------------|
G|----------------7--7-----------------7--7-|
D|-5--5--3--5--5--7--7--5--5--3--5--5--7--7-|
A|-5--5--3--5--5--5--5--5--5--3--5--5--5--5-|
E|-3--3--1--3--3--------3--3--1--3--3-------|


E|-------------------------------------|
B|-------------------------------------|
G|-8--8-----8-8-7--7--8--8-----8-8-7-7-|
D|-8--8--8--8-8-7--7--8--8--8--8-8-7-7-|
A|-6--6--8--6-6-5--5--6--6--8--6-6-5-5-|
E|-------6------------------6----------|


como me peinare esta noche,
E|----------------------------------|
B|-4-4-4-3-3-3----------------------|
G|--------------3-3--0-0-0-0-0-0-0-0|
D|----------------------------------|
A|----------------------------------|
E|----------------------------------|
que ropa me combinara mejor,
E|--------------3-3-5-5-5-6-6-6-5-5-|
B|--4-4-4-3-3-3---------------------|
G|----------------------------------|
D|----------------------------------|
A|----------------------------------|
E|----------------------------------|
tener tu interes, convertirlo en amor..
E|----------------------------------|
B|-4-4-4-3-3-3----------------------|
G|--------------3-3--0-0-0-0-0-0-0-0|
D|----------------------------------|
A|----------------------------------|
E|----------------------------------|

E|--------------3-3-5-5-5-6-6-6-5-5-|
B|--4-4-4-3-3-3---------------------|
G|----------------------------------|
D|----------------------------------|
A|----------------------------------|
E|----------------------------------|
quisiera saner que piensas,
E|----------------------------------|
B|-4-4-4-3-3-3----------------------|
G|--------------3-3--0-0-0-0-0-0-0-0|
D|----------------------------------|
A|----------------------------------|
E|----------------------------------|
me vere bien o acaso me veo mal,
E|--------------3-3-5-5-5-6-6-6-5-5-|
B|--4-4-4-3-3-3---------------------|
G|----------------------------------|
D|----------------------------------|
A|----------------------------------|
E|----------------------------------|
se que es patetico pero en mi es normal
E|----------------------------------|
B|-4-4-4-3-3-3----------------------|
G|--------------3-3--0-0-0-0-0-0-0-0|
D|----------------------------------|
A|----------------------------------|
E|----------------------------------|

E|----------------3-3-5-5-5-6-6-6-8-10—10b-|
B|-4-4-4-3-3-3-3---------------------------|
G|-----------------------------------------|
D|-----------------------------------------|
A|-----------------------------------------|
E|-----------------------------------------|

CORO:

suponiendo que en la gente la belleza es natural
E|-----------------------------------------------|
B|-----------------------------------------------|
G|---------88888-----------1010101010------------|
D|-55555---88888---88888---1010101010------------|
A|-55555---66666---88888---8-8-8-8-8-------------|
E|-33333-----------66666-------------------------|

pues belleza es la palabra que aun no logro concretar
E|-----------------------------------------------|
B|-----------------------------------------------|
G|---------88888-----------1010101010------------|
D|-55555---88888---88888---1010101010------------|
A|-55555---66666---88888---8-8-8-8-8-------------|
E|-33333-----------66666-------------------------|


disfraz, disfraz, narcicista artificial,
E|-------------------------------------|
B|-------------------------------------|
G|-88888-----------1010101010----------|
D|-88888---88888---1010101010--55555---|
A|-66666---88888---8-8-8-8-8---55555---|
E|---------66666---------------33333---|

   disfraz, disfraz, todo es mental
E|-------------------------------------|
B|-------------------------------------|
G|-88888-----------1010101010----------|
D|-88888---88888---1010101010----------|
A|-66666---88888---8-8-8-8-8-----------|
E|---------66666-----------------------|


Solo 1:

Aquí va la parte del Piano
Después entra la guitarra con esto

E|---------------------------------------|
B|--11-11-11-11---8-8-8-8---11-11-11-11--|
G|---------------------------------------|
D|---------------------------------------|
A|---------------------------------------|
E|---------------------------------------|

E|-----------------------------------------------|
B|--------------11-11-11-11-8-8-8-8-11-11-11-11--|
G|--10-10-10-10----------------------------------|
D|-----------------------------------------------|
A|-----------------------------------------------|
E|-----------------------------------------------|

E|-11-11-11-11-11-11-11-|
B|-11-11-11-11-11-11-11—|
G|----------------------|
D|----------------------|
A|----------------------|
E|----------------------|

Solo 2:

E|----------------------------------|
B|-11-10-8----8-----11-10-8----8----|
G|---------10---7-----------10---7--|
D|----------------------------------|
A|----------------------------------|
E|----------------------------------|

E|----------------------------------|
B|-11-10-8-----8--------------------|
G|---------10----7----8-10-8-7-8----|
D|----------------------------------|
A|----------------------------------|
E|----------------------------------|

E|----------------------------------|
B|-11-10-8----8-----11-10-8----8----|
G|---------10---7-----------10---7--|
D|----------------------------------|
A|----------------------------------|
E|----------------------------------|

E|----------------------------------|
B|-11-10-8-----8--------------------|
G|---------10----7----8-10-8-7-8----|
D|----------------------------------|
A|----------------------------------|
E|----------------------------------|

E|--------------11-10---|-------------11-10-11-13-11-10-|
B|-11-10-8----8-------11|-11-10-8----8------------------|
G|---------10-----------|---------10--------------------|
D|----------------------|-------------------------------|
A|----------------------|-------------------------------|
E|----------------------|-------------------------------|

E|--------------11-10---|--------------------------------|
B|-11-10-8----8------11-|-11-10-8---8--------------------|
G|---------10-----------|---------10--10-8-7-8-7---------|
D|----------------------|-----------------------10-8-7---|
A|----------------------|------------------------------8-|
E|----------------------|--------------------------------|


CORO:
Nota:
Aquí va fondeando la segunda guitarra con todo el solo 2
Hasta acabar

suponiendo que en la gente la belleza es natural
E|-----------------------------------------------|
B|-----------------------------------------------|
G|---------88888-----------1010101010------------|
D|-55555---88888---88888---1010101010------------|
A|-55555---66666---88888---8-8-8-8-8-------------|
E|-33333-----------66666--------------------------

pues belleza es la palabra que aun no logro concretar
E|-----------------------------------------------|
B|-----------------------------------------------|
G|---------88888-----------1010101010------------|
D|-55555---88888---88888---1010101010------------|
A|-55555---66666---88888---8-8-8-8-8-------------|
E|-33333-----------66666-------------------------|


disfraz, disfraz, narcicista artificial,
E|-------------------------------------|
B|-------------------------------------|
G|-88888-----------1010101010----------|
D|-88888---88888---1010101010--55555---|
A|-66666---88888---8-8-8-8-8---55555---|
E|---------66666---------------33333---|

   disfraz, disfraz, todo es mental
E|-------------------------------------|
B|-------------------------------------|
G|-88888-----------1010101010----------|
D|-88888---88888---1010101010----------|
A|-66666---88888---8-8-8-8-8-----------|
E|---------66666-----------------------|
Suggest correction
comments
print report bad tab
1 comment total.
0 reply
sarahi_mona14 10 May 11, 2013 09:51 PM

:D jenial esta muy buena

guest
You may want to rate the tab now too:
select rating
Wanna post a correction for this tab? Suggest correction